  0
SECTION
  2
HEADER
  9
$ACADVER
  1
AC1015
  9
$ACADMAINTVER
 70
    20
  9
$DWGCODEPAGE
  3
ANSI_932
  9
$INSBASE
 10
0.0
 20
120.499214
 30
0.0
  9
$EXTMIN
 10
-0.0077968558852604
 20
-0.0023346978276209
 30
-0.0000000698494069
  9
$EXTMAX
 10
125.0081485414507
 20
113.0035012243413
 30
0.0000000465733773
  9
$LIMMIN
 10
-17.0
 20
0.0
  9
$LIMMAX
 10
140.0
 20
110.0
  9
$ORTHOMODE
 70
     1
  9
$REGENMODE
 70
     1
  9
$FILLMODE
 70
     1
  9
$QTEXTMODE
 70
     0
  9
$MIRRTEXT
 70
     1
  9
$LTSCALE
 40
1.0
  9
$ATTMODE
 70
     1
  9
$TEXTSIZE
 40
3.0
  9
$TRACEWID
 40
0.5
  9
$TEXTSTYLE
  7
STANDARD
  9
$CLAYER
  8
0
  9
$CELTYPE
  6
ByLayer
  9
$CECOLOR
 62
   256
  9
$CELTSCALE
 40
1.0
  9
$DISPSILH
 70
     0
  9
$DIMSCALE
 40
1.0
  9
$DIMASZ
 40
2.0
  9
$DIMEXO
 40
2.0
  9
$DIMDLI
 40
8.0
  9
$DIMRND
 40
0.0
  9
$DIMDLE
 40
0.0
  9
$DIMEXE
 40
2.0
  9
$DIMTP
 40
0.0
  9
$DIMTM
 40
0.0
  9
$DIMTXT
 40
2.5
  9
$DIMCEN
 40
0.0
  9
$DIMTSZ
 40
0.0
  9
$DIMTOL
 70
     0
  9
$DIMLIM
 70
     0
  9
$DIMTIH
 70
     0
  9
$DIMTOH
 70
     0
  9
$DIMSE1
 70
     0
  9
$DIMSE2
 70
     0
  9
$DIMTAD
 70
     3
  9
$DIMZIN
 70
     0
  9
$DIMBLK
  1

  9
$DIMASO
 70
     1
  9
$DIMSHO
 70
     1
  9
$DIMPOST
  1

  9
$DIMAPOST
  1

  9
$DIMALT
 70
     0
  9
$DIMALTD
 70
     2
  9
$DIMALTF
 40
25.4
  9
$DIMLFAC
 40
1.0
  9
$DIMTOFL
 70
     1
  9
$DIMTVP
 40
0.0
  9
$DIMTIX
 70
     0
  9
$DIMSOXD
 70
     0
  9
$DIMSAH
 70
     1
  9
$DIMBLK1
  1
OPEN30
  9
$DIMBLK2
  1
OPEN30
  9
$DIMSTYLE
  2
STANDARD
  9
$DIMCLRD
 70
     0
  9
$DIMCLRE
 70
     0
  9
$DIMCLRT
 70
     0
  9
$DIMTFAC
 40
1.0
  9
$DIMGAP
 40
0.5
  9
$DIMJUST
 70
     0
  9
$DIMSD1
 70
     0
  9
$DIMSD2
 70
     0
  9
$DIMTOLJ
 70
     1
  9
$DIMTZIN
 70
     0
  9
$DIMALTZ
 70
     0
  9
$DIMALTTZ
 70
     0
  9
$DIMUPT
 70
     0
  9
$DIMDEC
 70
     4
  9
$DIMTDEC
 70
     4
  9
$DIMALTU
 70
     2
  9
$DIMALTTD
 70
     2
  9
$DIMTXSTY
  7
STANDARD
  9
$DIMAUNIT
 70
     0
  9
$DIMADEC
 70
     0
  9
$DIMALTRND
 40
0.0
  9
$DIMAZIN
 70
     0
  9
$DIMDSEP
 70
    46
  9
$DIMATFIT
 70
     3
  9
$DIMFRAC
 70
     0
  9
$DIMLDRBLK
  1
OPEN30
  9
$DIMLUNIT
 70
     2
  9
$DIMLWD
 70
    -2
  9
$DIMLWE
 70
    -2
  9
$DIMTMOVE
 70
     0
  9
$LUNITS
 70
     2
  9
$LUPREC
 70
     4
  9
$SKETCHINC
 40
0.1
  9
$FILLETRAD
 40
0.0
  9
$AUNITS
 70
     0
  9
$AUPREC
 70
     0
  9
$MENU
  1
ACAD
  9
$ELEVATION
 40
0.0
  9
$PELEVATION
 40
0.0
  9
$THICKNESS
 40
0.0
  9
$LIMCHECK
 70
     0
  9
$CHAMFERA
 40
0.0
  9
$CHAMFERB
 40
0.0
  9
$CHAMFERC
 40
0.0
  9
$CHAMFERD
 40
0.0
  9
$SKPOLY
 70
     0
  9
$TDCREATE
 40
2451815.565532998
  9
$TDUCREATE
 40
2451815.190532998
  9
$TDUPDATE
 40
2453727.676821643
  9
$TDUUPDATE
 40
2453727.301821643
  9
$TDINDWG
 40
0.7200254861
  9
$TDUSRTIMER
 40
0.7200253009
  9
$USRTIMER
 70
     1
  9
$ANGBASE
 50
0.0
  9
$ANGDIR
 70
     0
  9
$PDMODE
 70
     0
  9
$PDSIZE
 40
0.0
  9
$PLINEWID
 40
0.0
  9
$SPLFRAME
 70
     0
  9
$SPLINETYPE
 70
     6
  9
$SPLINESEGS
 70
     8
  9
$HANDSEED
  5
52D
  9
$SURFTAB1
 70
     6
  9
$SURFTAB2
 70
     6
  9
$SURFTYPE
 70
     6
  9
$SURFU
 70
     6
  9
$SURFV
 70
     6
  9
$UCSBASE
  2

  9
$UCSNAME
  2

  9
$UCSORG
 10
0.0
 20
0.0
 30
0.0
  9
$UCSXDIR
 10
1.0
 20
0.0
 30
0.0
  9
$UCSYDIR
 10
0.0
 20
1.0
 30
0.0
  9
$UCSORTHOREF
  2

  9
$UCSORTHOVIEW
 70
     0
  9
$UCSORGTOP
 10
0.0
 20
0.0
 30
0.0
  9
$UCSORGBOTTOM
 10
0.0
 20
0.0
 30
0.0
  9
$UCSORGLEFT
 10
0.0
 20
0.0
 30
0.0
  9
$UCSORGRIGHT
 10
0.0
 20
0.0
 30
0.0
  9
$UCSORGFRONT
 10
0.0
 20
0.0
 30
0.0
  9
$UCSORGBACK
 10
0.0
 20
0.0
 30
0.0
  9
$PUCSBASE
  2

  9
$PUCSNAME
  2

  9
$PUCSORG
 10
0.0
 20
0.0
 30
0.0
  9
$PUCSXDIR
 10
1.0
 20
0.0
 30
0.0
  9
$PUCSYDIR
 10
0.0
 20
1.0
 30
0.0
  9
$PUCSORTHOREF
  2

  9
$PUCSORTHOVIEW
 70
     0
  9
$PUCSORGTOP
 10
0.0
 20
0.0
 30
0.0
  9
$PUCSORGBOTTOM
 10
0.0
 20
0.0
 30
0.0
  9
$PUCSORGLEFT
 10
0.0
 20
0.0
 30
0.0
  9
$PUCSORGRIGHT
 10
0.0
 20
0.0
 30
0.0
  9
$PUCSORGFRONT
 10
0.0
 20
0.0
 30
0.0
  9
$PUCSORGBACK
 10
0.0
 20
0.0
 30
0.0
  9
$USERI1
 70
     0
  9
$USERI2
 70
     0
  9
$USERI3
 70
     0
  9
$USERI4
 70
     0
  9
$USERI5
 70
     0
  9
$USERR1
 40
0.0
  9
$USERR2
 40
0.0
  9
$USERR3
 40
0.0
  9
$USERR4
 40
0.0
  9
$USERR5
 40
0.0
  9
$WORLDVIEW
 70
     1
  9
$SHADEDGE
 70
     3
  9
$SHADEDIF
 70
    70
  9
$TILEMODE
 70
     1
  9
$MAXACTVP
 70
    48
  9
$PINSBASE
 10
0.0
 20
0.0
 30
0.0
  9
$PLIMCHECK
 70
     0
  9
$PEXTMIN
 10
1.000000000000000E+20
 20
1.000000000000000E+20
 30
1.000000000000000E+20
  9
$PEXTMAX
 10
-1.000000000000000E+20
 20
-1.000000000000000E+20
 30
-1.000000000000000E+20
  9
$PLIMMIN
 10
0.0
 20
0.0
  9
$PLIMMAX
 10
12.0
 20
9.0
  9
$UNITMODE
 70
     0
  9
$VISRETAIN
 70
     1
  9
$PLINEGEN
 70
     0
  9
$PSLTSCALE
 70
     1
  9
$TREEDEPTH
 70
  3020
  9
$CMLSTYLE
  2
Standard
  9
$CMLJUST
 70
     0
  9
$CMLSCALE
 40
1.0
  9
$PROXYGRAPHICS
 70
     1
  9
$MEASUREMENT
 70
     0
  9
$CELWEIGHT
370
    -1
  9
$ENDCAPS
280
     0
  9
$JOINSTYLE
280
     0
  9
$LWDISPLAY
290
     0
  9
$INSUNITS
 70
     0
  9
$HYPERLINKBASE
  1

  9
$STYLESHEET
  1

  9
$XEDIT
290
     1
  9
$CEPSNTYPE
380
     0
  9
$PSTYLEMODE
290
     1
  9
$FINGERPRINTGUID
  2
{EE80EDD0-B925-449F-B75F-A24FBC45E991}
  9
$VERSIONGUID
  2
{2A0CF866-B2B5-4BE7-8A4A-07DFBD200161}
  9
$EXTNAMES
290
     1
  9
$PSVPSCALE
 40
0.0
  9
$OLESTARTUP
290
     0
  0
ENDSEC
  0
SECTION
  2
CLASSES
  0
CLASS
  1
ACDBDICTIONARYWDFLT
  2
AcDbDictionaryWithDefault
  3
ObjectDBX Classes
 90
        0
280
     0
281
     0
  0
CLASS
  1
DICTIONARYVAR
  2
AcDbDictionaryVar
  3
ObjectDBX Classes
 90
        0
280
     0
281
     0
  0
CLASS
  1
ACDBPLACEHOLDER
  2
AcDbPlaceHolder
  3
ObjectDBX Classes
 90
        0
280
     0
281
     0
  0
CLASS
  1
LAYOUT
  2
AcDbLayout
  3
ObjectDBX Classes
 90
        0
280
     0
281
     0
  0
ENDSEC
  0
SECTION
  2
TABLES
  0
TABLE
  2
VPORT
  5
4D7
330
0
100
AcDbSymbolTable
 70
     2
  0
VPORT
  5
525
330
4D7
100
AcDbSymbolTableRecord
100
AcDbViewportTableRecord
  2
*Active
 70
     0
 10
0.0
 20
0.0
 11
1.0
 21
1.0
 12
62.50017584278271
 22
56.50058326325683
 13
0.0
 23
0.0
 14
1.0
 24
1.0
 15
0.0
 25
0.0
 16
0.0
 26
0.0
 36
1.0
 17
0.0
 27
0.0
 37
0.0
 40
113.9744573729303
 41
1.549356223175965
 42
50.0
 43
0.0
 44
0.0
 50
0.0
 51
0.0
 71
     0
 72
  1000
 73
     1
 74
     0
 75
     0
 76
     0
 77
     0
 78
     0
281
     0
 65
     1
110
0.0
120
0.0
130
0.0
111
1.0
121
0.0
131
0.0
112
0.0
122
1.0
132
0.0
 79
     0
146
0.0
  0
ENDTAB
  0
TABLE
  2
LTYPE
  5
4D4
330
0
100
AcDbSymbolTable
 70
     3
  0
LTYPE
  5
4E2
330
4D4
100
AcDbSymbolTableRecord
100
AcDbLinetypeTableRecord
  2
ByBlock
 70
     0
  3

 72
    65
 73
     0
 40
0.0
  0
LTYPE
  5
4E3
330
4D4
100
AcDbSymbolTableRecord
100
AcDbLinetypeTableRecord
  2
ByLayer
 70
     0
  3

 72
    65
 73
     0
 40
0.0
  0
LTYPE
  5
4E4
330
4D4
100
AcDbSymbolTableRecord
100
AcDbLinetypeTableRecord
  2
CONTINUOUS
 70
     0
  3
Solid line
 72
    65
 73
     0
 40
0.0
  0
LTYPE
  5
4F4
330
4D4
100
AcDbSymbolTableRecord
100
AcDbLinetypeTableRecord
  2
PHANTOM
 70
     0
  3
Phantom
 72
    65
 73
     6
 40
45.0
 49
40.0
 74
     0
 49
-1.0
 74
     0
 49
1.0
 74
     0
 49
-1.0
 74
     0
 49
1.0
 74
     0
 49
-1.0
 74
     0
  0
LTYPE
  5
4F5
330
4D4
100
AcDbSymbolTableRecord
100
AcDbLinetypeTableRecord
  2
HIDDEN2
 70
     0
  3
Hidden (.5x) _ _ _ _ _ _ _ _ _ _ _ _ _ _ _ _ _
 72
    65
 73
     2
 40
1.399999999999999
 49
0.7
 74
     0
 49
-0.7
 74
     0
  0
ENDTAB
  0
TABLE
  2
LAYER
  5
4D1
330
0
100
AcDbSymbolTable
 70
     7
  0
LAYER
  5
4DF
330
4D1
100
AcDbSymbolTableRecord
100
AcDbLayerTableRecord
  2
0
 70
     0
 62
     7
  6
CONTINUOUS
370
    -3
390
4DE
  0
LAYER
  5
4F6
330
4D1
100
AcDbSymbolTableRecord
100
AcDbLayerTableRecord
  2
DEFPOINTS
 70
     0
 62
     7
  6
CONTINUOUS
290
     0
370
    -3
390
4DE
  0
LAYER
  5
4F7
330
4D1
100
AcDbSymbolTableRecord
100
AcDbLayerTableRecord
  2
WAKU
 70
     0
 62
     4
  6
CONTINUOUS
370
    -3
390
4DE
  0
LAYER
  5
4F8
330
4D1
100
AcDbSymbolTableRecord
100
AcDbLayerTableRecord
  2
MOJI1
 70
     0
 62
     2
  6
CONTINUOUS
370
    -3
390
4DE
  0
LAYER
  5
4F9
330
4D1
100
AcDbSymbolTableRecord
100
AcDbLayerTableRecord
  2
GAIKEI
 70
     0
 62
     7
  6
CONTINUOUS
370
    -3
390
4DE
  0
LAYER
  5
4FA
330
4D1
100
AcDbSymbolTableRecord
100
AcDbLayerTableRecord
  2
SUNPO
 70
     0
 62
     3
  6
CONTINUOUS
370
    -3
390
4DE
  0
LAYER
  5
4FB
330
4D1
100
AcDbSymbolTableRecord
100
AcDbLayerTableRecord
  2
TOUROKU
 70
     0
 62
     1
  6
CONTINUOUS
370
    -3
390
4DE
  0
ENDTAB
  0
TABLE
  2
STYLE
  5
4D2
330
0
100
AcDbSymbolTable
 70
     1
  0
STYLE
  5
4E0
330
4D2
100
AcDbSymbolTableRecord
100
AcDbTextStyleTableRecord
  2
STANDARD
 70
     0
 40
0.0
 41
1.0
 50
0.0
 71
     0
 42
3.0
  3
MONOTXT.shx
  4
BIGFONT.shx
  0
ENDTAB
  0
TABLE
  2
VIEW
  5
4D5
330
0
100
AcDbSymbolTable
 70
     0
  0
ENDTAB
  0
TABLE
  2
UCS
  5
4D6
330
0
100
AcDbSymbolTable
 70
     0
  0
ENDTAB
  0
TABLE
  2
APPID
  5
4D8
330
0
100
AcDbSymbolTable
 70
     2
  0
APPID
  5
4E1
330
4D8
100
AcDbSymbolTableRecord
100
AcDbRegAppTableRecord
  2
ACAD
 70
     0
  0
APPID
  5
4FC
330
4D8
100
AcDbSymbolTableRecord
100
AcDbRegAppTableRecord
  2
CONTENTBLOCKICON
 70
     0
  0
ENDTAB
  0
TABLE
  2
DIMSTYLE
  5
4D9
330
0
100
AcDbSymbolTable
 70
     1
100
AcDbDimStyleTable
 71
     0
  0
DIMSTYLE
105
4FD
330
4D9
100
AcDbSymbolTableRecord
100
AcDbDimStyleTableRecord
  2
STANDARD
 70
     0
 40
0.0
 41
2.0
 42
2.0
 43
8.0
 44
2.0
 73
     0
 74
     0
 77
     3
140
3.0
141
0.0
173
     1
279
     2
340
4E0
  0
ENDTAB
  0
TABLE
  2
BLOCK_RECORD
  5
4D0
330
0
100
AcDbSymbolTable
 70
    13
  0
BLOCK_RECORD
  5
4EF
330
4D0
100
AcDbSymbolTableRecord
100
AcDbBlockTableRecord
  2
*Model_Space
340
4F2
  0
BLOCK_RECORD
  5
4EB
330
4D0
100
AcDbSymbolTableRecord
100
AcDbBlockTableRecord
  2
*Paper_Space
340
4EE
  0
BLOCK_RECORD
  5
504
330
4D0
100
AcDbSymbolTableRecord
100
AcDbBlockTableRecord
  2
_OPEN30
340
0
102
{BLKREFS
331
10F
331
110
331
102
331
103
331
34
331
3B
331
143
331
144
331
9C
331
9D
331
1B4
331
1B5
102
}
  0
BLOCK_RECORD
  5
50C
330
4D0
100
AcDbSymbolTableRecord
100
AcDbBlockTableRecord
  2
37
340
0
102
{BLKREFS
331
A4
102
}
  0
BLOCK_RECORD
  5
50E
330
4D0
100
AcDbSymbolTableRecord
100
AcDbBlockTableRecord
  2
37Y
340
0
102
{BLKREFS
331
14B
102
}
  0
BLOCK_RECORD
  5
510
330
4D0
100
AcDbSymbolTableRecord
100
AcDbBlockTableRecord
  2
ＳＴ０５
340
0
102
{BLKREFS
331
45
102
}
  0
BLOCK_RECORD
  5
512
330
4D0
100
AcDbSymbolTableRecord
100
AcDbBlockTableRecord
  2
ＳＴ０５Ｙ
340
0
102
{BLKREFS
331
117
102
}
  0
ENDTAB
  0
ENDSEC
  0
SECTION
  2
BLOCKS
  0
BLOCK
  5
4F0
330
4EF
100
AcDbEntity
  8
0
100
AcDbBlockBegin
  2
*Model_Space
 70
     0
 10
0.0
 20
0.0
 30
0.0
  3
*Model_Space
  1

  0
ENDBLK
  5
4F1
330
4EF
100
AcDbEntity
  8
0
100
AcDbBlockEnd
  0
BLOCK
  5
4EC
330
4EB
100
AcDbEntity
 67
     1
  8
0
100
AcDbBlockBegin
  2
*Paper_Space
 70
     0
 10
0.0
 20
0.0
 30
0.0
  3
*Paper_Space
  1

  0
ENDBLK
  5
4ED
330
4EB
100
AcDbEntity
 67
     1
  8
0
100
AcDbBlockEnd
  0
BLOCK
  5
505
330
504
100
AcDbEntity
  8
0
100
AcDbBlockBegin
  2
_OPEN30
 70
     0
 10
0.0
 20
0.0
 30
0.0
  3
_OPEN30
  1

  0
LINE
  5
36
330
504
100
AcDbEntity
  8
0
  6
ByBlock
 62
     0
100
AcDbLine
 10
-1.0
 20
0.267949
 30
0.0
 11
0.0
 21
0.0
 31
0.0
  0
LINE
  5
37
330
504
100
AcDbEntity
  8
0
  6
ByBlock
 62
     0
100
AcDbLine
 10
0.0
 20
0.0
 30
0.0
 11
-1.0
 21
-0.267949
 31
0.0
  0
LINE
  5
38
330
504
100
AcDbEntity
  8
0
  6
ByBlock
 62
     0
100
AcDbLine
 10
0.0
 20
0.0
 30
0.0
 11
-1.0
 21
0.0
 31
0.0
  0
ENDBLK
  5
3A
330
504
100
AcDbEntity
  8
0
100
AcDbBlockEnd
  0
BLOCK
  5
50D
330
50C
100
AcDbEntity
  8
0
100
AcDbBlockBegin
  2
37
 70
     0
 10
0.0
 20
0.0
 30
0.0
  3
37
  1

  0
LINE
  5
A6
330
50C
100
AcDbEntity
  8
GAIKEI
 62
     1
100
AcDbLine
 10
136.385364
 20
90.875423
 30
0.0
 11
177.285364
 21
90.875423
 31
0.0
  0
LINE
  5
A7
330
50C
100
AcDbEntity
  8
GAIKEI
 62
     1
100
AcDbLine
 10
179.520064
 20
92.98309999999998
 30
0.0
 11
134.1506639999999
 21
92.98309999999998
 31
0.0
  0
LINE
  5
A8
330
50C
100
AcDbEntity
  8
GAIKEI
100
AcDbLine
 10
134.035364
 20
93.09839699999999
 30
0.0
 11
179.6353639999999
 21
93.09839699999999
 31
0.0
  0
LINE
  5
A9
330
50C
100
AcDbEntity
  8
GAIKEI
 62
     1
100
AcDbLine
 10
135.4853639999999
 20
91.59839699999999
 30
0.0
 11
178.185364
 21
91.59839699999999
 31
0.0
  0
LINE
  5
AA
330
50C
100
AcDbEntity
  8
GAIKEI
100
AcDbLine
 10
178.306389
 20
91.719418
 30
0.0
 11
135.364364
 21
91.719418
 31
0.0
  0
LINE
  5
AB
330
50C
100
AcDbEntity
  8
GAIKEI
 62
     1
100
AcDbLine
 10
136.385364
 20
67.825423
 30
0.0
 11
177.285364
 21
67.825423
 31
0.0
  0
LINE
  5
AC
330
50C
100
AcDbEntity
  8
GAIKEI
 62
     1
100
AcDbLine
 10
179.520064
 20
65.71369399999999
 30
0.0
 11
135.521889
 21
65.71369399999999
 31
0.0
  0
LINE
  5
AD
330
50C
100
AcDbEntity
  8
GAIKEI
 62
     1
100
AcDbLine
 10
135.4853639999999
 20
67.09839699999999
 30
0.0
 11
178.185364
 21
67.09839699999999
 31
0.0
  0
LINE
  5
AE
330
50C
100
AcDbEntity
  8
GAIKEI
100
AcDbLine
 10
134.035364
 20
65.59839699999999
 30
0.0
 11
179.6353639999999
 21
65.59839699999999
 31
0.0
  0
LINE
  5
AF
330
50C
100
AcDbEntity
  8
GAIKEI
100
AcDbLine
 10
178.306389
 20
66.977376
 30
0.0
 11
135.364364
 21
66.977376
 31
0.0
  0
CIRCLE
  5
B0
330
50C
100
AcDbEntity
  8
GAIKEI
 62
     1
100
AcDbCircle
 10
136.360364
 20
66.288397
 30
0.0
 40
0.075
  0
ARC
  5
B1
330
50C
100
AcDbEntity
  8
GAIKEI
 62
     1
100
AcDbCircle
 10
135.4853639999999
 20
91.448397
 30
0.0
 40
0.15
100
AcDbArc
 50
90.0
 51
180.0
  0
ARC
  5
B2
330
50C
100
AcDbEntity
  8
GAIKEI
 62
     1
100
AcDbCircle
 10
135.4853639999999
 20
67.248397
 30
0.0
 40
0.15
100
AcDbArc
 50
180.0
 51
270.0
  0
LINE
  5
B3
330
50C
100
AcDbEntity
  8
GAIKEI
 62
     1
100
AcDbLine
 10
135.477664
 20
65.77976600000001
 30
0.0
 11
135.496889
 21
65.80859
 31
0.0
  0
LINE
  5
B4
330
50C
100
AcDbEntity
  8
GAIKEI
 62
     1
100
AcDbLine
 10
135.477664
 20
65.70462899999999
 30
0.0
 11
135.477664
 21
65.77976600000001
 31
0.0
  0
ARC
  5
B5
330
50C
100
AcDbEntity
  8
GAIKEI
 62
     1
100
AcDbCircle
 10
135.416889
 20
66.368397
 30
0.0
 40
0.08
100
AcDbArc
 50
0.0
 51
90.0
  0
LINE
  5
B6
330
50C
100
AcDbEntity
  8
GAIKEI
 62
     1
100
AcDbLine
 10
135.496889
 20
65.73869399999999
 30
0.0
 11
135.496889
 21
66.368397
 31
0.0
  0
ARC
  5
B7
330
50C
100
AcDbEntity
  8
GAIKEI
 62
     1
100
AcDbCircle
 10
135.502664
 20
65.70462899999999
 30
0.0
 40
0.025
100
AcDbArc
 50
180.0
 51
270.0
  0
ARC
  5
B8
330
50C
100
AcDbEntity
  8
GAIKEI
 62
     1
100
AcDbCircle
 10
135.521889
 20
65.73869399999999
 30
0.0
 40
0.025
100
AcDbArc
 50
180.0
 51
270.0
  0
LINE
  5
B9
330
50C
100
AcDbEntity
  8
GAIKEI
 62
     1
100
AcDbLine
 10
135.335364
 20
67.248397
 30
0.0
 11
135.335364
 21
91.448397
 31
0.0
  0
ARC
  5
BA
330
50C
100
AcDbEntity
  8
GAIKEI
100
AcDbCircle
 10
134.035364
 20
92.89839699999999
 30
0.0
 40
0.2
100
AcDbArc
 50
90.0
 51
178.838702
  0
ARC
  5
BB
330
50C
100
AcDbEntity
  8
GAIKEI
 62
     1
100
AcDbCircle
 10
134.1506639999999
 20
92.78310000000001
 30
0.0
 40
0.2
100
AcDbArc
 50
90.0
 51
180.0
  0
LINE
  5
BC
330
50C
100
AcDbEntity
  8
GAIKEI
 62
     1
100
AcDbLine
 10
134.293064
 20
65.70462899999999
 30
0.0
 11
134.293064
 21
65.77976600000001
 31
0.0
  0
LINE
  5
BD
330
50C
100
AcDbEntity
  8
GAIKEI
 62
     1
100
AcDbLine
 10
134.293064
 20
65.77976600000001
 30
0.0
 11
134.273864
 21
65.80859
 31
0.0
  0
LINE
  5
BE
330
50C
100
AcDbEntity
  8
GAIKEI
 62
     1
100
AcDbLine
 10
134.273864
 20
65.73869399999999
 30
0.0
 11
134.273864
 21
66.368397
 31
0.0
  0
ARC
  5
BF
330
50C
100
AcDbEntity
  8
GAIKEI
 62
     1
100
AcDbCircle
 10
134.353864
 20
66.368397
 30
0.0
 40
0.08
100
AcDbArc
 50
90.0
 51
180.0
  0
LINE
  5
C0
330
50C
100
AcDbEntity
  8
GAIKEI
 62
     1
100
AcDbLine
 10
134.248864
 20
65.71369399999999
 30
0.0
 11
134.1506639999999
 21
65.71369399999999
 31
0.0
  0
ARC
  5
C1
330
50C
100
AcDbEntity
  8
GAIKEI
 62
     1
100
AcDbCircle
 10
134.2680639999999
 20
65.70462899999999
 30
0.0
 40
0.025
100
AcDbArc
 50
270.0
 51
0.0
  0
ARC
  5
C2
330
50C
100
AcDbEntity
  8
GAIKEI
 62
     1
100
AcDbCircle
 10
134.248864
 20
65.73869399999999
 30
0.0
 40
0.025
100
AcDbArc
 50
270.0
 51
0.0
  0
ARC
  5
C3
330
50C
100
AcDbEntity
  8
GAIKEI
100
AcDbCircle
 10
134.035364
 20
65.79839699999999
 30
0.0
 40
0.2
100
AcDbArc
 50
180.0
 51
270.0
  0
ARC
  5
C4
330
50C
100
AcDbEntity
  8
GAIKEI
 62
     1
100
AcDbCircle
 10
134.1506639999999
 20
65.91369399999999
 30
0.0
 40
0.2
100
AcDbArc
 50
180.0
 51
270.0
  0
LINE
  5
C5
330
50C
100
AcDbEntity
  8
GAIKEI
100
AcDbLine
 10
135.214364
 20
91.569418
 30
0.0
 11
135.214364
 21
67.127376
 31
0.0
  0
LINE
  5
C6
330
50C
100
AcDbEntity
  8
GAIKEI
100
AcDbLine
 10
133.835405
 20
92.90245
 30
0.0
 11
133.835364
 21
65.79839699999999
 31
0.0
  0
LINE
  5
C7
330
50C
100
AcDbEntity
  8
GAIKEI
 62
     1
100
AcDbLine
 10
133.950664
 20
92.78310000000001
 30
0.0
 11
133.950664
 21
65.91369399999999
 31
0.0
  0
ARC
  5
C8
330
50C
100
AcDbEntity
  8
GAIKEI
100
AcDbCircle
 10
135.364364
 20
91.569418
 30
0.0
 40
0.15
100
AcDbArc
 50
90.0
 51
180.0
  0
LINE
  5
C9
330
50C
100
AcDbEntity
  8
GAIKEI
 62
     1
100
AcDbLine
 10
135.477664
 20
65.77976600000001
 30
0.0
 11
134.293064
 21
65.77976600000001
 31
0.0
  0
LINE
  5
CA
330
50C
100
AcDbEntity
  8
GAIKEI
 62
     1
100
AcDbLine
 10
135.502664
 20
65.67962900000001
 30
0.0
 11
134.2680639999999
 21
65.67962900000001
 31
0.0
  0
LINE
  5
CB
330
50C
100
AcDbEntity
  8
GAIKEI
 62
     1
100
AcDbLine
 10
135.416889
 20
66.448397
 30
0.0
 11
134.353864
 21
66.448397
 31
0.0
  0
ARC
  5
CC
330
50C
100
AcDbEntity
  8
GAIKEI
100
AcDbCircle
 10
135.364364
 20
67.127376
 30
0.0
 40
0.15
100
AcDbArc
 50
180.0
 51
270.0
  0
LINE
  5
CD
330
50C
100
AcDbEntity
  8
GAIKEI
 62
     1
100
AcDbLine
 10
140.927994
 20
66.413397
 30
0.0
 11
141.227994
 21
66.413397
 31
0.0
  0
LINE
  5
CE
330
50C
100
AcDbEntity
  8
GAIKEI
 62
     1
100
AcDbLine
 10
141.227994
 20
66.413397
 30
0.0
 11
141.227994
 21
66.11339699999999
 31
0.0
  0
LINE
  5
CF
330
50C
100
AcDbEntity
  8
GAIKEI
 62
     1
100
AcDbLine
 10
141.227994
 20
66.11339699999999
 30
0.0
 11
140.927994
 21
66.11339699999999
 31
0.0
  0
LINE
  5
D0
330
50C
100
AcDbEntity
  8
GAIKEI
 62
     1
100
AcDbLine
 10
140.927994
 20
66.11339699999999
 30
0.0
 11
140.927994
 21
66.413397
 31
0.0
  0
LINE
  5
D1
330
50C
100
AcDbEntity
  8
GAIKEI
 62
     1
100
AcDbLine
 10
141.378546
 20
66.11339699999999
 30
0.0
 11
141.378546
 21
66.413397
 31
0.0
  0
LINE
  5
D2
330
50C
100
AcDbEntity
  8
GAIKEI
 62
     1
100
AcDbLine
 10
141.678546
 20
66.11339699999999
 30
0.0
 11
141.378546
 21
66.11339699999999
 31
0.0
  0
LINE
  5
D3
330
50C
100
AcDbEntity
  8
GAIKEI
 62
     1
100
AcDbLine
 10
141.678546
 20
66.413397
 30
0.0
 11
141.678546
 21
66.11339699999999
 31
0.0
  0
LINE
  5
D4
330
50C
100
AcDbEntity
  8
GAIKEI
 62
     1
100
AcDbLine
 10
141.378546
 20
66.413397
 30
0.0
 11
141.678546
 21
66.413397
 31
0.0
  0
LINE
  5
D5
330
50C
100
AcDbEntity
  8
GAIKEI
 62
     1
100
AcDbLine
 10
137.589114
 20
66.025897
 30
0.0
 11
138.381614
 21
66.025897
 31
0.0
  0
LINE
  5
D6
330
50C
100
AcDbEntity
  8
GAIKEI
 62
     1
100
AcDbLine
 10
137.589114
 20
66.50089699999999
 30
0.0
 11
138.381614
 21
66.50089699999999
 31
0.0
  0
LINE
  5
D7
330
50C
100
AcDbEntity
  8
GAIKEI
 62
     1
100
AcDbLine
 10
137.564114
 20
66.05089699999999
 30
0.0
 11
137.564114
 21
66.47589700000001
 31
0.0
  0
ARC
  5
D8
330
50C
100
AcDbEntity
  8
GAIKEI
 62
     1
100
AcDbCircle
 10
137.589114
 20
66.05089699999999
 30
0.0
 40
0.025
100
AcDbArc
 50
180.0
 51
270.0
  0
ARC
  5
D9
330
50C
100
AcDbEntity
  8
GAIKEI
 62
     1
100
AcDbCircle
 10
137.589114
 20
66.47589700000001
 30
0.0
 40
0.025
100
AcDbArc
 50
90.0
 51
180.0
  0
LINE
  5
DA
330
50C
100
AcDbEntity
  8
GAIKEI
 62
     1
100
AcDbLine
 10
140.477441
 20
66.413397
 30
0.0
 11
140.777441
 21
66.413397
 31
0.0
  0
LINE
  5
DB
330
50C
100
AcDbEntity
  8
GAIKEI
 62
     1
100
AcDbLine
 10
140.777441
 20
66.413397
 30
0.0
 11
140.777441
 21
66.11339699999999
 31
0.0
  0
LINE
  5
DC
330
50C
100
AcDbEntity
  8
GAIKEI
 62
     1
100
AcDbLine
 10
140.777441
 20
66.11339699999999
 30
0.0
 11
140.477441
 21
66.11339699999999
 31
0.0
  0
LINE
  5
DD
330
50C
100
AcDbEntity
  8
GAIKEI
 62
     1
100
AcDbLine
 10
140.477441
 20
66.11339699999999
 30
0.0
 11
140.477441
 21
66.413397
 31
0.0
  0
LINE
  5
DE
330
50C
100
AcDbEntity
  8
GAIKEI
 62
     1
100
AcDbLine
 10
140.026888
 20
66.11339699999999
 30
0.0
 11
140.026888
 21
66.413397
 31
0.0
  0
LINE
  5
DF
330
50C
100
AcDbEntity
  8
GAIKEI
 62
     1
100
AcDbLine
 10
140.326888
 20
66.11339699999999
 30
0.0
 11
140.026888
 21
66.11339699999999
 31
0.0
  0
LINE
  5
E0
330
50C
100
AcDbEntity
  8
GAIKEI
 62
     1
100
AcDbLine
 10
140.326888
 20
66.413397
 30
0.0
 11
140.326888
 21
66.11339699999999
 31
0.0
  0
LINE
  5
E1
330
50C
100
AcDbEntity
  8
GAIKEI
 62
     1
100
AcDbLine
 10
140.026888
 20
66.413397
 30
0.0
 11
140.326888
 21
66.413397
 31
0.0
  0
LINE
  5
E2
330
50C
100
AcDbEntity
  8
GAIKEI
 62
     1
100
AcDbLine
 10
139.576336
 20
66.413397
 30
0.0
 11
139.876336
 21
66.413397
 31
0.0
  0
LINE
  5
E3
330
50C
100
AcDbEntity
  8
GAIKEI
 62
     1
100
AcDbLine
 10
139.876336
 20
66.413397
 30
0.0
 11
139.876336
 21
66.11339699999999
 31
0.0
  0
LINE
  5
E4
330
50C
100
AcDbEntity
  8
GAIKEI
 62
     1
100
AcDbLine
 10
139.876336
 20
66.11339699999999
 30
0.0
 11
139.576336
 21
66.11339699999999
 31
0.0
  0
LINE
  5
E5
330
50C
100
AcDbEntity
  8
GAIKEI
 62
     1
100
AcDbLine
 10
139.576336
 20
66.11339699999999
 30
0.0
 11
139.576336
 21
66.413397
 31
0.0
  0
LINE
  5
E6
330
50C
100
AcDbEntity
  8
GAIKEI
 62
     1
100
AcDbLine
 10
138.575552
 20
66.17939699999999
 30
0.0
 11
138.575552
 21
66.347397
 31
0.0
  0
LINE
  5
E7
330
50C
100
AcDbEntity
  8
GAIKEI
 62
     1
100
AcDbLine
 10
138.743552
 20
66.17939699999999
 30
0.0
 11
138.575552
 21
66.17939699999999
 31
0.0
  0
LINE
  5
E8
330
50C
100
AcDbEntity
  8
GAIKEI
 62
     1
100
AcDbLine
 10
138.743552
 20
66.347397
 30
0.0
 11
138.743552
 21
66.17939699999999
 31
0.0
  0
LINE
  5
E9
330
50C
100
AcDbEntity
  8
GAIKEI
 62
     1
100
AcDbLine
 10
138.575552
 20
66.347397
 30
0.0
 11
138.743552
 21
66.347397
 31
0.0
  0
LINE
  5
EA
330
50C
100
AcDbEntity
  8
GAIKEI
 62
     1
100
AcDbLine
 10
138.406614
 20
66.05089699999999
 30
0.0
 11
138.406614
 21
66.47589700000001
 31
0.0
  0
ARC
  5
EB
330
50C
100
AcDbEntity
  8
GAIKEI
 62
     1
100
AcDbCircle
 10
138.381614
 20
66.47589700000001
 30
0.0
 40
0.025
100
AcDbArc
 50
0.0
 51
90.0
  0
ARC
  5
EC
330
50C
100
AcDbEntity
  8
GAIKEI
 62
     1
100
AcDbCircle
 10
138.381614
 20
66.05089699999999
 30
0.0
 40
0.025
100
AcDbArc
 50
270.0
 51
0.0
  0
LINE
  5
ED
330
50C
100
AcDbEntity
  8
GAIKEI
 62
     1
100
AcDbLine
 10
136.385364
 20
90.875423
 30
0.0
 11
136.385364
 21
67.825423
 31
0.0
  0
ARC
  5
EE
330
50C
100
AcDbEntity
  8
GAIKEI
 62
     1
100
AcDbCircle
 10
178.185364
 20
91.448397
 30
0.0
 40
0.15
100
AcDbArc
 50
0.0
 51
90.0
  0
ARC
  5
EF
330
50C
100
AcDbEntity
  8
GAIKEI
100
AcDbCircle
 10
178.306389
 20
91.569418
 30
0.0
 40
0.15
100
AcDbArc
 50
0.0
 51
90.0
  0
ARC
  5
F0
330
50C
100
AcDbEntity
  8
GAIKEI
 62
     1
100
AcDbCircle
 10
179.520064
 20
92.78310000000001
 30
0.0
 40
0.2
100
AcDbArc
 50
0.0
 51
90.0
  0
ARC
  5
F1
330
50C
100
AcDbEntity
  8
GAIKEI
100
AcDbCircle
 10
179.6353639999999
 20
92.89839699999999
 30
0.0
 40
0.2
100
AcDbArc
 50
1.161297999999999
 51
90.0
  0
ARC
  5
F2
330
50C
100
AcDbEntity
  8
GAIKEI
 62
     1
100
AcDbCircle
 10
178.185364
 20
67.248397
 30
0.0
 40
0.15
100
AcDbArc
 50
270.0
 51
0.0
  0
ARC
  5
F3
330
50C
100
AcDbEntity
  8
GAIKEI
 62
     1
100
AcDbCircle
 10
179.520064
 20
65.91369399999999
 30
0.0
 40
0.2
100
AcDbArc
 50
270.0
 51
0.0
  0
ARC
  5
F4
330
50C
100
AcDbEntity
  8
GAIKEI
100
AcDbCircle
 10
179.6353639999999
 20
65.79839699999999
 30
0.0
 40
0.2
100
AcDbArc
 50
270.0
 51
0.0
  0
ARC
  5
F5
330
50C
100
AcDbEntity
  8
GAIKEI
100
AcDbCircle
 10
178.306389
 20
67.127376
 30
0.0
 40
0.15
100
AcDbArc
 50
270.0
 51
0.0
  0
LINE
  5
F6
330
50C
100
AcDbEntity
  8
GAIKEI
 62
     1
100
AcDbLine
 10
178.335364
 20
67.248397
 30
0.0
 11
178.335364
 21
91.448397
 31
0.0
  0
LINE
  5
F7
330
50C
100
AcDbEntity
  8
GAIKEI
 62
     1
100
AcDbLine
 10
179.7200639999999
 20
92.78310000000001
 30
0.0
 11
179.7200639999999
 21
65.91369399999999
 31
0.0
  0
LINE
  5
F8
330
50C
100
AcDbEntity
  8
GAIKEI
100
AcDbLine
 10
178.456389
 20
91.569418
 30
0.0
 11
178.456389
 21
67.127376
 31
0.0
  0
LINE
  5
F9
330
50C
100
AcDbEntity
  8
GAIKEI
100
AcDbLine
 10
179.835323
 20
92.90245
 30
0.0
 11
179.835364
 21
65.79839699999999
 31
0.0
  0
LINE
  5
FA
330
50C
100
AcDbEntity
  8
GAIKEI
 62
     1
100
AcDbLine
 10
177.285364
 20
90.875423
 30
0.0
 11
177.285364
 21
67.825423
 31
0.0
  0
ENDBLK
  5
FC
330
50C
100
AcDbEntity
  8
0
100
AcDbBlockEnd
  0
BLOCK
  5
50F
330
50E
100
AcDbEntity
  8
0
100
AcDbBlockBegin
  2
37Y
 70
     0
 10
0.0
 20
0.0
 30
0.0
  3
37Y
  1

  0
ARC
  5
14D
330
50E
100
AcDbEntity
  8
GAIKEI
100
AcDbCircle
 10
207.107851
 20
88.42105699999999
 30
0.0
 40
1.5
100
AcDbArc
 50
352.169542
 51
0.0
  0
ARC
  5
14E
330
50E
100
AcDbEntity
  8
GAIKEI
100
AcDbCircle
 10
207.107851
 20
88.875737
 30
0.0
 40
1.5
100
AcDbArc
 50
0.0
 51
7.830457000000001
  0
ARC
  5
14F
330
50E
100
AcDbEntity
  8
GAIKEI
100
AcDbCircle
 10
208.582851
 20
83.37339699999999
 30
0.0
 40
0.025
100
AcDbArc
 50
270.0
 51
0.0
  0
LINE
  5
150
330
50E
100
AcDbEntity
  8
GAIKEI
100
AcDbLine
 10
208.607851
 20
83.37339699999999
 30
0.0
 11
208.607851
 21
88.92909000000001
 31
0.0
  0
LINE
  5
151
330
50E
100
AcDbEntity
  8
GAIKEI
 62
     1
100
AcDbLine
 10
208.142614
 20
89.018042
 30
0.0
 11
207.859504
 21
91.07665199999999
 31
0.0
  0
LINE
  5
152
330
50E
100
AcDbEntity
  8
GAIKEI
100
AcDbLine
 10
208.480774
 20
89.90244100000001
 30
0.0
 11
208.304074
 21
91.18729300000001
 31
0.0
  0
LINE
  5
153
330
50E
100
AcDbEntity
  8
GAIKEI
 62
     1
100
AcDbLine
 10
208.091099
 20
89.01095699999999
 30
0.0
 11
207.814351
 21
91.02330699999999
 31
0.0
  0
LINE
  5
154
330
50E
100
AcDbEntity
  8
GAIKEI
100
AcDbLine
 10
208.593866
 20
88.21669399999999
 30
0.0
 11
208.480774
 21
87.39435300000002
 31
0.0
  0
LINE
  5
155
330
50E
100
AcDbEntity
  8
GAIKEI
 62
     1
100
AcDbLine
 10
208.152351
 20
88.648397
 30
0.0
 11
208.152351
 21
88.42105699999999
 31
0.0
  0
LINE
  5
156
330
50E
100
AcDbEntity
  8
GAIKEI
 62
     1
100
AcDbLine
 10
208.100351
 20
88.648397
 30
0.0
 11
208.100351
 21
88.42105699999999
 31
0.0
  0
ARC
  5
157
330
50E
100
AcDbEntity
  8
GAIKEI
 62
     1
100
AcDbCircle
 10
207.107851
 20
88.42105699999999
 30
0.0
 40
0.9925
100
AcDbArc
 50
352.169542
 51
0.0
  0
ARC
  5
158
330
50E
100
AcDbEntity
  8
GAIKEI
 62
     1
100
AcDbCircle
 10
207.107851
 20
88.42105699999999
 30
0.0
 40
1.044499999999999
100
AcDbArc
 50
352.169542
 51
0.0
  0
LINE
  5
159
330
50E
100
AcDbEntity
  8
GAIKEI
100
AcDbLine
 10
208.607851
 20
88.648397
 30
0.0
 11
208.607851
 21
88.42105699999999
 31
0.0
  0
LINE
  5
15A
330
50E
100
AcDbEntity
  8
GAIKEI
100
AcDbLine
 10
208.593866
 20
89.0801
 30
0.0
 11
208.480774
 21
89.90244100000001
 31
0.0
  0
LINE
  5
15B
330
50E
100
AcDbEntity
  8
GAIKEI
 62
     1
100
AcDbLine
 10
208.152351
 20
88.648397
 30
0.0
 11
208.152351
 21
88.875737
 31
0.0
  0
LINE
  5
15C
330
50E
100
AcDbEntity
  8
GAIKEI
 62
     1
100
AcDbLine
 10
208.100351
 20
88.648397
 30
0.0
 11
208.100351
 21
88.875737
 31
0.0
  0
ARC
  5
15D
330
50E
100
AcDbEntity
  8
GAIKEI
 62
     1
100
AcDbCircle
 10
207.107851
 20
88.875737
 30
0.0
 40
0.9925
100
AcDbArc
 50
0.0
 51
7.830457000000001
  0
ARC
  5
15E
330
50E
100
AcDbEntity
  8
GAIKEI
 62
     1
100
AcDbCircle
 10
207.107851
 20
88.875737
 30
0.0
 40
1.044499999999999
100
AcDbArc
 50
0.0
 51
7.830457000000001
  0
LINE
  5
15F
330
50E
100
AcDbEntity
  8
GAIKEI
100
AcDbLine
 10
208.607851
 20
88.648397
 30
0.0
 11
208.607851
 21
88.875737
 31
0.0
  0
ARC
  5
160
330
50E
100
AcDbEntity
  8
GAIKEI
 62
     1
100
AcDbCircle
 10
207.944551
 20
91.23258699999999
 30
0.0
 40
0.35
100
AcDbArc
 50
7.830457000000001
 51
77.905243
  0
LINE
  5
161
330
50E
100
AcDbEntity
  8
GAIKEI
100
AcDbLine
 10
208.304074
 20
91.18729300000001
 30
0.0
 11
208.291289
 21
91.280272
 31
0.0
  0
ARC
  5
162
330
50E
100
AcDbEntity
  8
GAIKEI
 62
     1
100
AcDbCircle
 10
207.710901
 20
91.05621500000001
 30
0.0
 40
0.15
100
AcDbArc
 50
7.830457000000001
 51
88.0
  0
ARC
  5
163
330
50E
100
AcDbEntity
  8
GAIKEI
 62
     1
100
AcDbCircle
 10
207.665749
 20
91.002871
 30
0.0
 40
0.15
100
AcDbArc
 50
7.830457000000001
 51
88.0
  0
ARC
  5
164
330
50E
100
AcDbEntity
  8
GAIKEI
100
AcDbCircle
 10
208.009649
 20
91.389212
 30
0.0
 40
0.25
100
AcDbArc
 50
8.0
 51
78.0
  0
LINE
  5
165
330
50E
100
AcDbEntity
  8
GAIKEI
100
AcDbLine
 10
208.264026
 20
91.37554200000002
 30
0.0
 11
208.257214
 21
91.424005
 31
0.0
  0
ARC
  5
166
330
50E
100
AcDbEntity
  8
GAIKEI
100
AcDbCircle
 10
207.944551
 20
86.06420599999999
 30
0.0
 40
0.35
100
AcDbArc
 50
282.0947569999999
 51
352.169542
  0
LINE
  5
167
330
50E
100
AcDbEntity
  8
GAIKEI
100
AcDbLine
 10
208.304074
 20
86.1095
 30
0.0
 11
208.291289
 21
86.016522
 31
0.0
  0
ARC
  5
168
330
50E
100
AcDbEntity
  8
GAIKEI
 62
     1
100
AcDbCircle
 10
207.710901
 20
86.240578
 30
0.0
 40
0.15
100
AcDbArc
 50
272.0
 51
352.169542
  0
ARC
  5
169
330
50E
100
AcDbEntity
  8
GAIKEI
 62
     1
100
AcDbCircle
 10
207.665749
 20
86.29392299999999
 30
0.0
 40
0.15
100
AcDbArc
 50
272.0
 51
352.169542
  0
LINE
  5
16A
330
50E
100
AcDbEntity
  8
GAIKEI
  6
PHANTOM
 62
     1
100
AcDbLine
 10
208.232851
 20
85.52228799999999
 30
0.0
 11
208.424111
 21
85.771864
 31
0.0
  0
ARC
  5
16B
330
50E
100
AcDbEntity
  8
GAIKEI
 62
     1
100
AcDbCircle
 10
207.732851
 20
85.52228799999999
 30
0.0
 40
0.5
100
AcDbArc
 50
0.0
 51
31.882725
  0
ARC
  5
16C
330
50E
100
AcDbEntity
  8
GAIKEI
 62
     1
100
AcDbCircle
 10
207.924111
 20
85.771864
 30
0.0
 40
0.5
100
AcDbArc
 50
0.0
 51
40.80569099999999
  0
LINE
  5
16D
330
50E
100
AcDbEntity
  8
GAIKEI
 62
     1
100
AcDbLine
 10
208.424111
 20
85.771864
 30
0.0
 11
208.424111
 21
86.98234499999999
 31
0.0
  0
LINE
  5
16E
330
50E
100
AcDbEntity
  8
GAIKEI
 62
     1
100
AcDbLine
 10
208.142614
 20
88.27875199999999
 30
0.0
 11
207.859504
 21
86.220142
 31
0.0
  0
LINE
  5
16F
330
50E
100
AcDbEntity
  8
GAIKEI
100
AcDbLine
 10
208.480774
 20
87.39435300000002
 30
0.0
 11
208.304074
 21
86.1095
 31
0.0
  0
LINE
  5
170
330
50E
100
AcDbEntity
  8
GAIKEI
 62
     1
100
AcDbLine
 10
208.091099
 20
88.28583700000001
 30
0.0
 11
207.814351
 21
86.273487
 31
0.0
  0
ARC
  5
171
330
50E
100
AcDbEntity
  8
GAIKEI
100
AcDbCircle
 10
204.232851
 20
92.935651
 30
0.0
 40
0.05
100
AcDbArc
 50
93.0
 51
180.0
  0
LINE
  5
172
330
50E
100
AcDbEntity
  8
GAIKEI
 62
     1
100
AcDbLine
 10
206.552851
 20
88.648397
 30
0.0
 11
206.552851
 21
91.15179899999999
 31
0.0
  0
LINE
  5
173
330
50E
100
AcDbEntity
  8
GAIKEI
 62
     1
100
AcDbLine
 10
206.857851
 20
88.648397
 30
0.0
 11
206.857851
 21
91.037595
 31
0.0
  0
LINE
  5
174
330
50E
100
AcDbEntity
  8
GAIKEI
 62
     1
100
AcDbLine
 10
206.507851
 20
88.648397
 30
0.0
 11
206.507851
 21
91.09306700000001
 31
0.0
  0
ARC
  5
175
330
50E
100
AcDbEntity
  8
GAIKEI
 62
     1
100
AcDbCircle
 10
206.657851
 20
91.09306700000001
 30
0.0
 40
0.15
100
AcDbArc
 50
88.0
 51
180.0
  0
LINE
  5
176
330
50E
100
AcDbEntity
  8
GAIKEI
 62
     1
100
AcDbLine
 10
206.604596
 20
91.20176800000001
 30
0.0
 11
206.962344
 21
91.18927600000001
 31
0.0
  0
ARC
  5
177
330
50E
100
AcDbEntity
  8
GAIKEI
 62
     1
100
AcDbCircle
 10
207.007851
 20
91.037595
 30
0.0
 40
0.15
100
AcDbArc
 50
107.785497
 51
180.0
  0
LINE
  5
178
330
50E
100
AcDbEntity
  8
GAIKEI
 62
     1
100
AcDbLine
 10
206.962344
 20
91.18927600000001
 30
0.0
 11
206.962034
 21
91.180426
 31
0.0
  0
ARC
  5
179
330
50E
100
AcDbEntity
  8
GAIKEI
 62
     1
100
AcDbCircle
 10
206.602851
 20
91.15179899999999
 30
0.0
 40
0.05
100
AcDbArc
 50
88.0
 51
180.0
  0
ARC
  5
17A
330
50E
100
AcDbEntity
  8
GAIKEI
 62
     1
100
AcDbCircle
 10
206.537851
 20
91.44646599999999
 30
0.0
 40
0.5
100
AcDbArc
 50
48.50662999999999
 51
78.0
  0
LINE
  5
17B
330
50E
100
AcDbEntity
  8
GAIKEI
100
AcDbLine
 10
206.382851
 20
93.09839699999999
 30
0.0
 11
204.230236
 21
92.98558299999999
 31
0.0
  0
LINE
  5
17C
330
50E
100
AcDbEntity
  8
GAIKEI
 62
     1
100
AcDbLine
 10
206.382851
 20
91.898397
 30
0.0
 11
206.507851
 21
91.898397
 31
0.0
  0
ARC
  5
17D
330
50E
100
AcDbEntity
  8
GAIKEI
100
AcDbCircle
 10
206.607851
 20
92.198343
 30
0.0
 40
0.25
100
AcDbArc
 50
205.841933
 51
257.999999
  0
ARC
  5
17E
330
50E
100
AcDbEntity
  8
GAIKEI
 62
     1
100
AcDbCircle
 10
206.657851
 20
86.20372600000001
 30
0.0
 40
0.15
100
AcDbArc
 50
180.0
 51
272.0
  0
LINE
  5
17F
330
50E
100
AcDbEntity
  8
GAIKEI
 62
     1
100
AcDbLine
 10
206.604596
 20
86.09502500000001
 30
0.0
 11
206.962344
 21
86.107518
 31
0.0
  0
ARC
  5
180
330
50E
100
AcDbEntity
  8
GAIKEI
 62
     1
100
AcDbCircle
 10
207.007851
 20
86.25919899999999
 30
0.0
 40
0.15
100
AcDbArc
 50
180.0
 51
252.214504
  0
LINE
  5
181
330
50E
100
AcDbEntity
  8
GAIKEI
 62
     1
100
AcDbLine
 10
206.962344
 20
86.107518
 30
0.0
 11
206.962034
 21
86.11636800000001
 31
0.0
  0
ARC
  5
182
330
50E
100
AcDbEntity
  8
GAIKEI
 62
     1
100
AcDbCircle
 10
206.602851
 20
86.14499499999999
 30
0.0
 40
0.05
100
AcDbArc
 50
180.0
 51
272.0
  0
LINE
  5
183
330
50E
100
AcDbEntity
  8
GAIKEI
100
AcDbLine
 10
206.382851
 20
85.39839699999999
 30
0.0
 11
206.507851
 21
85.39839699999999
 31
0.0
  0
LINE
  5
184
330
50E
100
AcDbEntity
  8
GAIKEI
 62
     1
100
AcDbLine
 10
206.552851
 20
88.648397
 30
0.0
 11
206.552851
 21
86.14499499999999
 31
0.0
  0
LINE
  5
185
330
50E
100
AcDbEntity
  8
GAIKEI
 62
     1
100
AcDbLine
 10
206.857851
 20
88.648397
 30
0.0
 11
206.857851
 21
86.25919899999999
 31
0.0
  0
LINE
  5
186
330
50E
100
AcDbEntity
  8
GAIKEI
 62
     1
100
AcDbLine
 10
206.507851
 20
88.648397
 30
0.0
 11
206.507851
 21
86.20372600000001
 31
0.0
  0
LINE
  5
187
330
50E
100
AcDbEntity
  8
GAIKEI
 62
     1
100
AcDbLine
 10
208.017886
 20
91.57481800000001
 30
0.0
 11
206.507851
 21
91.898397
 31
0.0
  0
LINE
  5
188
330
50E
100
AcDbEntity
  8
GAIKEI
 62
     1
100
AcDbLine
 10
206.663086
 20
91.242976
 30
0.0
 11
207.716139
 21
91.20620200000001
 31
0.0
  0
LINE
  5
189
330
50E
100
AcDbEntity
  8
GAIKEI
 62
     1
100
AcDbLine
 10
206.954531
 20
91.17779799999999
 30
0.0
 11
207.670984
 21
91.152779
 31
0.0
  0
LINE
  5
18A
330
50E
100
AcDbEntity
  8
GAIKEI
100
AcDbLine
 10
208.061626
 20
91.63374899999999
 30
0.0
 11
206.555874
 21
91.953806
 31
0.0
  0
LINE
  5
18B
330
50E
100
AcDbEntity
  8
GAIKEI
100
AcDbLine
 10
208.017886
 20
85.721976
 30
0.0
 11
206.507851
 21
85.39839699999999
 31
0.0
  0
LINE
  5
18C
330
50E
100
AcDbEntity
  8
GAIKEI
 62
     1
100
AcDbLine
 10
206.663086
 20
86.05381800000001
 30
0.0
 11
207.716139
 21
86.09059100000001
 31
0.0
  0
LINE
  5
18D
330
50E
100
AcDbEntity
  8
GAIKEI
 62
     1
100
AcDbLine
 10
206.954531
 20
86.11899499999999
 30
0.0
 11
207.670984
 21
86.144014
 31
0.0
  0
ARC
  5
18E
330
50E
100
AcDbEntity
  8
GAIKEI
100
AcDbCircle
 10
208.357851
 20
70.56147199999999
 30
0.0
 40
0.25
100
AcDbArc
 50
295.0
 51
0.0
  0
ARC
  5
18F
330
50E
100
AcDbEntity
  8
GAIKEI
 62
     1
100
AcDbCircle
 10
208.457851
 20
69.222678
 30
0.0
 40
0.15
100
AcDbArc
 50
282.1946200000001
 51
0.0
  0
ARC
  5
190
330
50E
100
AcDbEntity
  8
GAIKEI
100
AcDbCircle
 10
208.582851
 20
74.823397
 30
0.0
 40
0.025
100
AcDbArc
 50
0.0
 51
90.0
  0
ARC
  5
191
330
50E
100
AcDbEntity
  8
GAIKEI
100
AcDbCircle
 10
208.357851
 20
67.10605499999999
 30
0.0
 40
0.25
100
AcDbArc
 50
273.0
 51
0.0
  0
LINE
  5
192
330
50E
100
AcDbEntity
  8
GAIKEI
100
AcDbLine
 10
208.607851
 20
70.56147199999999
 30
0.0
 11
208.607851
 21
74.823397
 31
0.0
  0
LINE
  5
193
330
50E
100
AcDbEntity
  8
GAIKEI
 62
     1
100
AcDbLine
 10
208.332851
 20
70.21026299999999
 30
0.0
 11
208.332851
 21
67.09164300000001
 31
0.0
  0
LINE
  5
194
330
50E
100
AcDbEntity
  8
GAIKEI
100
AcDbLine
 10
208.607851
 20
67.10605499999999
 30
0.0
 11
208.607851
 21
70.56647199999999
 31
0.0
  0
LINE
  5
195
330
50E
100
AcDbEntity
  8
GAIKEI
100
AcDbLine
 10
207.607851
 20
67.05364799999999
 30
0.0
 11
207.607851
 21
69.617362
 31
0.0
  0
ARC
  5
196
330
50E
100
AcDbEntity
  8
GAIKEI
100
AcDbCircle
 10
208.107851
 20
69.617362
 30
0.0
 40
0.5
100
AcDbArc
 50
115.0
 51
180.0
  0
ARC
  5
197
330
50E
100
AcDbEntity
  8
GAIKEI
 62
     1
100
AcDbCircle
 10
208.432851
 20
70.21026299999999
 30
0.0
 40
0.1
100
AcDbArc
 50
115.0
 51
180.0
  0
LINE
  5
198
330
50E
100
AcDbEntity
  8
GAIKEI
100
AcDbLine
 10
208.390591
 20
70.300894
 30
0.0
 11
207.896544
 21
70.070516
 31
0.0
  0
ARC
  5
199
330
50E
100
AcDbEntity
  8
GAIKEI
 62
     1
100
AcDbCircle
 10
207.982851
 20
70.386607
 30
0.0
 40
0.25
100
AcDbArc
 50
295.0
 51
0.0
  0
LINE
  5
19A
330
50E
100
AcDbEntity
  8
GAIKEI
100
AcDbLine
 10
208.463506
 20
70.33489499999999
 30
0.0
 11
208.390591
 21
70.300894
 31
0.0
  0
ARC
  5
19B
330
50E
100
AcDbEntity
  8
GAIKEI
 62
     1
100
AcDbCircle
 10
207.407436
 20
68.97339699999999
 30
0.0
 40
0.380417
100
AcDbArc
 50
301.791831
 51
58.20816899999999
  0
LINE
  5
19C
330
50E
100
AcDbEntity
  8
GAIKEI
  6
PHANTOM
 62
     1
100
AcDbLine
 10
208.332851
 20
69.537104
 30
0.0
 11
208.332851
 21
69.47339699999999
 31
0.0
  0
LINE
  5
19D
330
50E
100
AcDbEntity
  8
GAIKEI
 62
     1
100
AcDbLine
 10
208.489536
 20
69.076062
 30
0.0
 11
208.451166
 21
69.06776999999999
 31
0.0
  0
ARC
  5
19E
330
50E
100
AcDbEntity
  8
GAIKEI
 62
     1
100
AcDbCircle
 10
208.482851
 20
68.921155
 30
0.0
 40
0.15
100
AcDbArc
 50
102.19462
 51
180.0
  0
ARC
  5
19F
330
50E
100
AcDbEntity
  8
GAIKEI
 62
     1
100
AcDbCircle
 10
208.082851
 20
67.09164300000001
 30
0.0
 40
0.25
100
AcDbArc
 50
273.0
 51
0.0
  0
ARC
  5
1A0
330
50E
100
AcDbEntity
  8
GAIKEI
100
AcDbCircle
 10
207.357851
 20
67.05364799999999
 30
0.0
 40
0.25
100
AcDbArc
 50
273.0
 51
0.0
  0
ARC
  5
1A1
330
50E
100
AcDbEntity
  8
GAIKEI
100
AcDbCircle
 10
204.232851
 20
65.76114200000001
 30
0.0
 40
0.05
100
AcDbArc
 50
180.0
 51
267.0
  0
LINE
  5
1A2
330
50E
100
AcDbEntity
  8
GAIKEI
100
AcDbLine
 10
204.189964
 20
65.73544
 30
0.0
 11
204.168519
 21
65.722589
 31
0.0
  0
LINE
  5
1A3
330
50E
100
AcDbEntity
  8
GAIKEI
100
AcDbLine
 10
206.382851
 20
65.59839699999999
 30
0.0
 11
206.382851
 21
65.64107199999999
 31
0.0
  0
LINE
  5
1A4
330
50E
100
AcDbEntity
  8
GAIKEI
100
AcDbLine
 10
206.382851
 20
65.59839699999999
 30
0.0
 11
204.230236
 21
65.71121099999999
 31
0.0
  0
ARC
  5
1A5
330
50E
100
AcDbEntity
  8
GAIKEI
100
AcDbCircle
 10
206.607851
 20
66.51365600000001
 30
0.0
 40
0.25
100
AcDbArc
 50
93.0
 51
154.158067
  0
LINE
  5
1A6
330
50E
100
AcDbEntity
  8
GAIKEI
100
AcDbLine
 10
208.370936
 20
66.856398
 30
0.0
 11
206.594769
 21
66.763313
 31
0.0
  0
LINE
  5
1A7
330
50E
100
AcDbEntity
  8
GAIKEI
 62
     1
100
AcDbLine
 10
208.232851
 20
70.386607
 30
0.0
 11
208.232851
 21
85.52228799999999
 31
0.0
  0
LINE
  5
1A8
330
50E
100
AcDbEntity
  8
GAIKEI
100
AcDbLine
 10
204.182851
 20
65.76114200000001
 30
0.0
 11
204.182851
 21
92.935651
 31
0.0
  0
LINE
  5
1A9
330
50E
100
AcDbEntity
  8
GAIKEI
100
AcDbLine
 10
206.382851
 20
65.59839699999999
 30
0.0
 11
206.382851
 21
93.09839699999999
 31
0.0
  0
LINE
  5
1AA
330
50E
100
AcDbEntity
  8
GAIKEI
100
AcDbLine
 10
208.582851
 20
74.84839699999999
 30
0.0
 11
208.582851
 21
83.34839699999999
 31
0.0
  0
ENDBLK
  5
1AC
330
50E
100
AcDbEntity
  8
0
100
AcDbBlockEnd
  0
BLOCK
  5
511
330
510
100
AcDbEntity
  8
0
100
AcDbBlockBegin
  2
ＳＴ０５
 70
     0
 10
0.0
 20
0.0
 30
0.0
  3
ＳＴ０５
  1

  0
LINE
  5
47
330
510
100
AcDbEntity
  8
GAIKEI
  6
Continuous
100
AcDbLine
 10
26.28247
 20
302.602927
 30
0.0
 11
62.420545
 21
302.602927
 31
0.0
  0
LINE
  5
49
330
510
100
AcDbEntity
  8
GAIKEI
  6
Continuous
100
AcDbLine
 10
26.03202
 20
304.802256
 30
0.0
 11
62.69559499999999
 21
304.802256
 31
0.0
  0
LINE
  5
4A
330
510
100
AcDbEntity
  8
GAIKEI
  6
Continuous
 62
     1
100
AcDbLine
 10
26.272195
 20
305.0578220000001
 30
0.0
 11
62.45531999999999
 21
305.0578220000001
 31
0.0
  0
LINE
  5
4B
330
510
100
AcDbEntity
  8
GAIKEI
  6
Continuous
100
AcDbLine
 10
24.270927
 20
301.6828220000001
 30
0.0
 11
64.456637
 21
301.6828220000001
 31
0.0
  0
LINE
  5
4C
330
510
100
AcDbEntity
  8
GAIKEI
  6
Continuous
 62
     1
100
AcDbLine
 10
24.273547
 20
301.732822
 30
0.0
 11
64.45401700000001
 21
301.732822
 31
0.0
  0
LWPOLYLINE
  5
4D
330
510
100
AcDbEntity
  8
GAIKEI
  6
Continuous
 62
     1
100
AcDbPolyline
 90
       11
 70
     0
 43
0.0
 10
57.06151999999999
 20
302.4064
 10
55.79219499999999
 20
302.4064
 10
54.522895
 20
302.4064
 10
53.25357
 20
302.4064
 10
51.984245
 20
302.4064
 10
50.714945
 20
302.4064
 10
49.44562
 20
302.4064
 10
48.176295
 20
302.4064
 10
46.906995
 20
302.4064
 10
45.63767
 20
302.4064
 10
44.36834499999999
 20
302.4064
  0
LWPOLYLINE
  5
4E
330
510
100
AcDbEntity
  8
GAIKEI
  6
Continuous
 62
     1
100
AcDbPolyline
 90
       11
 70
     0
 43
0.0
 10
57.06151999999999
 20
302.4064
 10
55.79219499999999
 20
302.4064
 10
54.522895
 20
302.4064
 10
53.25357
 20
302.4064
 10
51.984245
 20
302.4064
 10
50.714945
 20
302.4064
 10
49.44562
 20
302.4064
 10
48.176295
 20
302.4064
 10
46.906995
 20
302.4064
 10
45.63767
 20
302.4064
 10
44.36834499999999
 20
302.4064
  0
LWPOLYLINE
  5
4F
330
510
100
AcDbEntity
  8
GAIKEI
  6
Continuous
 62
     1
100
AcDbPolyline
 90
       51
 70
     0
 43
0.0
 10
29.54417
 20
302.367185
 10
29.582995
 20
302.3698
 10
29.621845
 20
302.372287
 10
29.660695
 20
302.374635
 10
29.69952
 20
302.376832
 10
29.738395
 20
302.378868
 10
29.777245
 20
302.380731
 10
29.81612
 20
302.38241
 10
29.85497
 20
302.383895
 10
29.893845
 20
302.385173
 10
29.932745
 20
302.386234
 10
29.95612
 20
302.386766
 10
29.97952
 20
302.38723
 10
30.00292
 20
302.387641
 10
30.02632
 20
302.388014
 10
30.049695
 20
302.388363
 10
30.073095
 20
302.388703
 10
30.096495
 20
302.389049
 10
30.119895
 20
302.389415
 10
30.143295
 20
302.389817
 10
30.16667
 20
302.390269
 10
30.19492
 20
302.390895
 10
30.223145
 20
302.3916
 10
30.251395
 20
302.392371
 10
30.27962
 20
302.393192
 10
30.307845
 20
302.394048
 10
30.336095
 20
302.394924
 10
30.36432
 20
302.395806
 10
30.392545
 20
302.396679
 10
30.420795
 20
302.397527
 10
30.44902
 20
302.398337
 10
30.508295
 20
302.399872
 10
30.56757
 20
302.401192
 10
30.62687
 20
302.402315
 10
30.686145
 20
302.4032640000001
 10
30.745445
 20
302.404057
 10
30.804745
 20
302.404715
 10
30.864045
 20
302.405258
 10
30.923345
 20
302.405707
 10
30.982645
 20
302.406081
 10
31.041945
 20
302.4064
 10
31.10487
 20
302.406697
 10
31.16777
 20
302.406947
 10
31.230695
 20
302.407144
 10
31.29362
 20
302.4072799999999
 10
31.356545
 20
302.407348
 10
31.41947
 20
302.407339
 10
31.48237
 20
302.407248
 10
31.545295
 20
302.407066
 10
31.60822
 20
302.406786
 10
31.671145
 20
302.4064
  0
LINE
  5
50
330
510
100
AcDbEntity
  8
GAIKEI
  6
Continuous
 62
     1
100
AcDbLine
 10
29.96347
 20
305.0578220000001
 30
0.0
 11
29.96347
 21
304.907822
 31
0.0
  0
LINE
  5
51
330
510
100
AcDbEntity
  8
GAIKEI
  6
Continuous
 62
     1
100
AcDbLine
 10
29.96347
 20
304.907822
 30
0.0
 11
29.96347
 21
304.802256
 31
0.0
  0
LINE
  5
52
330
510
100
AcDbEntity
  8
GAIKEI
  6
HIDDEN2
 62
     1
100
AcDbLine
 10
26.788896
 20
304.807329
 30
0.0
 11
26.892711
 21
310.754873
 31
0.0
  0
LINE
  5
54
330
510
100
AcDbEntity
  8
GAIKEI
  6
HIDDEN2
 62
     1
100
AcDbLine
 10
27.738718
 20
304.807329
 30
0.0
 11
27.634904
 21
310.754873
 31
0.0
  0
LINE
  5
55
330
510
100
AcDbEntity
  8
GAIKEI
  6
Continuous
 62
     1
100
AcDbLine
 10
26.20462
 20
304.858947
 30
0.0
 11
26.202345
 21
304.802256
 31
0.0
  0
LINE
  5
56
330
510
100
AcDbEntity
  8
GAIKEI
  6
Continuous
 62
     1
100
AcDbLine
 10
26.249245
 20
305.056416
 30
0.0
 11
26.26637
 21
305.0578220000001
 31
0.0
  0
LINE
  5
57
330
510
100
AcDbEntity
  8
GAIKEI
  6
Continuous
 62
     1
100
AcDbLine
 10
26.224145
 20
305.04161
 30
0.0
 11
26.23129500000001
 21
305.048038
 31
0.0
  0
LINE
  5
58
330
510
100
AcDbEntity
  8
GAIKEI
  6
Continuous
 62
     1
100
AcDbLine
 10
26.21117
 20
305.012622
 30
0.0
 11
26.21567000000001
 21
305.028909
 31
0.0
  0
ARC
  5
59
330
510
100
AcDbEntity
  8
GAIKEI
  6
Continuous
100
AcDbCircle
 10
26.03202
 20
304.752256
 30
0.0
 40
0.05
100
AcDbArc
 50
90.0
 51
177.554186
  0
LWPOLYLINE
  5
5A
330
510
100
AcDbEntity
  8
GAIKEI
  6
Continuous
 62
     1
100
AcDbPolyline
 90
       18
 70
     0
 43
0.0
 10
26.32117
 20
305.009567
 10
26.32082
 20
305.014069
 10
26.32007
 20
305.018519
 10
26.31892000000001
 20
305.022882
 10
26.317395
 20
305.027122
 10
26.31552000000001
 20
305.031205
 10
26.31327000000001
 20
305.035097
 10
26.31069500000001
 20
305.038767
 10
26.307795
 20
305.042184
 10
26.30462
 20
305.045321
 10
26.30117
 20
305.048152
 10
26.29747
 20
305.050654
 10
26.293595
 20
305.052807
 10
26.28952
 20
305.054593
 10
26.28532
 20
305.0559970000001
 10
26.280995
 20
305.057008
 10
26.27662
 20
305.057618
 10
26.272195
 20
305.0578220000001
  0
LWPOLYLINE
  5
5B
330
510
100
AcDbEntity
  8
GAIKEI
  6
Continuous
 62
     1
100
AcDbPolyline
 90
       18
 70
     0
 43
0.0
 10
26.32557
 20
304.856077
 10
26.32592
 20
304.851576
 10
26.32667
 20
304.847126
 10
26.32782000000001
 20
304.842763
 10
26.329345
 20
304.838522
 10
26.33122
 20
304.834439
 10
26.33347
 20
304.830547
 10
26.33604500000001
 20
304.826878
 10
26.338945
 20
304.823461
 10
26.34212
 20
304.820324
 10
26.34557
 20
304.817493
 10
26.34927
 20
304.81499
 10
26.353145
 20
304.812838
 10
26.35722
 20
304.811052
 10
26.36142
 20
304.809648
 10
26.365745
 20
304.808636
 10
26.37012
 20
304.808026
 10
26.374545
 20
304.8078220000001
  0
LINE
  5
5C
330
510
100
AcDbEntity
  8
GAIKEI
  6
Continuous
 62
     1
100
AcDbLine
 10
26.32557
 20
304.856074
 30
0.0
 11
26.324095
 21
304.907822
 31
0.0
  0
ARC
  5
5D
330
510
100
AcDbEntity
  8
GAIKEI
  6
Continuous
 62
     1
100
AcDbCircle
 10
26.26102
 20
305.007822
 30
0.0
 40
0.05
100
AcDbArc
 50
103.620144
 51
126.455106
  0
ARC
  5
5E
330
510
100
AcDbEntity
  8
GAIKEI
  6
Continuous
 62
     1
100
AcDbCircle
 10
26.26102
 20
305.007822
 30
0.0
 40
0.05
100
AcDbArc
 50
137.487173
 51
155.056332
  0
LINE
  5
5F
330
510
100
AcDbEntity
  8
GAIKEI
  6
Continuous
 62
     1
100
AcDbLine
 10
26.20462
 20
304.858947
 30
0.0
 11
26.206695
 21
304.907822
 31
0.0
  0
LINE
  5
60
330
510
100
AcDbEntity
  8
GAIKEI
  6
Continuous
 62
     1
100
AcDbLine
 10
26.324095
 20
304.907822
 30
0.0
 11
26.32117
 21
305.009564
 31
0.0
  0
LINE
  5
61
330
510
100
AcDbEntity
  8
GAIKEI
  6
Continuous
 62
     1
100
AcDbLine
 10
26.206695
 20
304.907822
 30
0.0
 11
26.21117
 21
305.012622
 31
0.0
  0
LWPOLYLINE
  5
62
330
510
100
AcDbEntity
  8
GAIKEI
  6
Continuous
 62
     1
100
AcDbPolyline
 90
       11
 70
     0
 43
0.0
 10
24.858695
 20
302.023228
 10
24.96357
 20
302.022098
 10
25.06842
 20
302.02113
 10
25.173295
 20
302.020323
 10
25.27817000000001
 20
302.019678
 10
25.38304500000001
 20
302.019194
 10
25.487895
 20
302.018871
 10
25.59277
 20
302.018709
 10
25.697645
 20
302.018709
 10
25.80252
 20
302.018871
 10
25.907395
 20
302.019193
  0
LINE
  5
63
330
510
100
AcDbEntity
  8
GAIKEI
  6
Continuous
100
AcDbLine
 10
24.858695
 20
302.023228
 30
0.0
 11
24.83852000000001
 21
302.023228
 31
0.0
  0
LWPOLYLINE
  5
64
330
510
100
AcDbEntity
  8
GAIKEI
  6
Continuous
100
AcDbPolyline
 90
       51
 70
     0
 43
0.0
 10
25.88722000000001
 20
302.534418
 10
25.89337
 20
302.537636
 10
25.89957
 20
302.540769
 10
25.90582
 20
302.543808
 10
25.91212
 20
302.546746
 10
25.91847
 20
302.549575
 10
25.92487
 20
302.552289
 10
25.93132
 20
302.55488
 10
25.937795
 20
302.557341
 10
25.94432
 20
302.559664
 10
25.95092
 20
302.561842
 10
25.959945
 20
302.564576
 10
25.96907
 20
302.567056
 10
25.978245
 20
302.569312
 10
25.98747
 20
302.571374
 10
25.996745
 20
302.5732720000001
 10
26.00607
 20
302.575034
 10
26.015395
 20
302.576692
 10
26.02477
 20
302.578275
 10
26.03412
 20
302.579812
 10
26.043495
 20
302.581334
 10
26.05372
 20
302.583004
 10
26.063945
 20
302.584674
 10
26.07417
 20
302.586326
 10
26.084395
 20
302.587943
 10
26.094595
 20
302.589508
 10
26.10482
 20
302.591004
 10
26.11507
 20
302.592414
 10
26.125295
 20
302.59372
 10
26.13557
 20
302.594905
 10
26.14582
 20
302.595953
 10
26.15457
 20
302.596726
 10
26.16332
 20
302.5974
 10
26.17207
 20
302.597989
 10
26.180845
 20
302.598505
 10
26.18962
 20
302.598962
 10
26.198395
 20
302.599374
 10
26.207195
 20
302.599753
 10
26.21597
 20
302.600112
 10
26.22477
 20
302.600465
 10
26.233545
 20
302.600826
 10
26.23844500000001
 20
302.601034
 10
26.24332
 20
302.601247
 10
26.24822
 20
302.601463
 10
26.25312
 20
302.601681
 10
26.25802
 20
302.601898
 10
26.262895
 20
302.602114
 10
26.267795
 20
302.602326
 10
26.27269500000001
 20
302.602534
 10
26.27757
 20
302.602735
 10
26.28247
 20
302.602927
  0
LWPOLYLINE
  5
65
330
510
100
AcDbEntity
  8
GAIKEI
  6
Continuous
 62
     1
100
AcDbPolyline
 90
       11
 70
     0
 43
0.0
 10
25.91142
 20
302.019193
 10
25.98797
 20
302.01878
 10
26.064445
 20
302.019445
 10
26.14084500000001
 20
302.021188
 10
26.21717
 20
302.024008
 10
26.293445
 20
302.027906
 10
26.36962
 20
302.032881
 10
26.44577
 20
302.038934
 10
26.52182
 20
302.046065
 10
26.59782
 20
302.054273
 10
26.673745
 20
302.06356
  0
LINE
  5
66
330
510
100
AcDbEntity
  8
GAIKEI
  6
Continuous
100
AcDbLine
 10
25.88722000000001
 20
302.534418
 30
0.0
 11
25.982045
 21
304.75439
 31
0.0
  0
LWPOLYLINE
  5
67
330
510
100
AcDbEntity
  8
GAIKEI
  6
Continuous
100
AcDbPolyline
 90
       41
 70
     0
 43
0.0
 10
25.88722000000001
 20
302.534418
 10
25.878345
 20
302.533462
 10
25.869445
 20
302.532474
 10
25.860545
 20
302.531454
 10
25.85167
 20
302.530401
 10
25.842795
 20
302.529315
 10
25.83392
 20
302.528195
 10
25.82507
 20
302.52704
 10
25.816195
 20
302.525851
 10
25.807345
 20
302.524628
 10
25.798495
 20
302.523368
 10
25.74472
 20
302.514971
 10
25.69112
 20
302.505504
 10
25.637595
 20
302.495226
 10
25.584145
 20
302.484399
 10
25.53072
 20
302.473285
 10
25.477245
 20
302.462144
 10
25.42367
 20
302.451237
 10
25.369995
 20
302.440827
 10
25.31612
 20
302.431173
 10
25.262045
 20
302.422538
 10
25.220945
 20
302.416776
 10
25.17977
 20
302.41148
 10
25.138545
 20
302.406384
 10
25.09737
 20
302.401223
 10
25.05632
 20
302.39573
 10
25.015395
 20
302.389638
 10
24.97472
 20
302.382682
 10
24.93432
 20
302.374595
 10
24.894295
 20
302.365112
 10
24.85467
 20
302.353965
 10
24.84652
 20
302.351428
 10
24.83842
 20
302.348814
 10
24.83032
 20
302.346128
 10
24.82222
 20
302.343375
 10
24.814145
 20
302.34056
 10
24.806095
 20
302.337689
 10
24.79807
 20
302.334765
 10
24.79002
 20
302.331795
 10
24.78202
 20
302.328784
 10
24.77399500000001
 20
302.325736
  0
LWPOLYLINE
  5
68
330
510
100
AcDbEntity
  8
GAIKEI
  6
Continuous
100
AcDbPolyline
 90
       13
 70
     0
 43
0.0
 10
24.85467
 20
302.353965
 10
24.79937
 20
302.3351
 10
24.744895
 20
302.314422
 10
24.691245
 20
302.291932
 10
24.63839500000001
 20
302.267627
 10
24.58637
 20
302.24151
 10
24.535145
 20
302.213579
 10
24.48472000000001
 20
302.183836
 10
24.435145
 20
302.152279
 10
24.386345
 20
302.118909
 10
24.328299
 20
302.076318
 42
0.225046
 10
24.287594
 20
302.000925
 10
24.270927
 20
301.6828220000001
  0
LWPOLYLINE
  5
69
330
510
100
AcDbEntity
  8
GAIKEI
  6
Continuous
 62
     1
100
AcDbPolyline
 90
       61
 70
     0
 43
0.0
 10
24.33434500000001
 20
302.0837259999999
 10
24.33582
 20
302.081571
 10
24.33732
 20
302.07945
 10
24.338845
 20
302.077361
 10
24.340395
 20
302.075304
 10
24.341995
 20
302.073277
 10
24.343645
 20
302.071279
 10
24.345295
 20
302.069309
 10
24.346995
 20
302.067367
 10
24.34872
 20
302.065451
 10
24.350495
 20
302.06356
 10
24.350895
 20
302.063145
 10
24.35127
 20
302.062732
 10
24.35167
 20
302.062321
 10
24.35207
 20
302.061912
 10
24.35247
 20
302.061506
 10
24.35287000000001
 20
302.061102
 10
24.353295
 20
302.060702
 10
24.353695
 20
302.060306
 10
24.35412
 20
302.059913
 10
24.35452
 20
302.059525
 10
24.36249500000001
 20
302.053326
 10
24.37132
 20
302.048517
 10
24.38087
 20
302.044926
 10
24.39097
 20
302.04238
 10
24.401495
 20
302.040705
 10
24.412295
 20
302.039729
 10
24.42322
 20
302.03928
 10
24.434145
 20
302.039184
 10
24.444895
 20
302.039268
 10
24.45537
 20
302.039359
 10
24.472695
 20
302.039081
 10
24.490045
 20
302.038215
 10
24.50737
 20
302.036904
 10
24.524695
 20
302.035291
 10
24.54202
 20
302.033519
 10
24.55937
 20
302.031729
 10
24.576695
 20
302.030066
 10
24.594045
 20
302.028672
 10
24.61142000000001
 20
302.02769
 10
24.628795
 20
302.027262
 10
24.629595
 20
302.027258
 10
24.63042
 20
302.027255
 10
24.63122
 20
302.0272540000001
 10
24.63202
 20
302.027253
 10
24.63282
 20
302.0272540000001
 10
24.633645
 20
302.027255
 10
24.634445
 20
302.027256
 10
24.635245
 20
302.027258
 10
24.63604500000001
 20
302.02726
 10
24.63687
 20
302.027262
 10
24.65702
 20
302.02726
 10
24.677195
 20
302.027159
 10
24.69737
 20
302.026962
 10
24.717545
 20
302.026672
 10
24.737695
 20
302.026295
 10
24.75787
 20
302.025834
 10
24.778045
 20
302.025293
 10
24.798195
 20
302.024676
 10
24.81837
 20
302.023986
 10
24.83852000000001
 20
302.023228
  0
CIRCLE
  5
6A
330
510
100
AcDbEntity
  8
GAIKEI
  6
HIDDEN2
 62
     1
100
AcDbCircle
 10
27.263807
 20
306.977256
 30
0.0
 40
0.05
  0
CIRCLE
  5
6B
330
510
100
AcDbEntity
  8
GAIKEI
  6
HIDDEN2
 62
     1
100
AcDbCircle
 10
27.263807
 20
309.227256
 30
0.0
 40
0.05
  0
LINE
  5
6C
330
510
100
AcDbEntity
  8
GAIKEI
  6
HIDDEN2
 62
     1
100
AcDbLine
 10
27.042688
 20
310.902256
 30
0.0
 11
27.484927
 21
310.902256
 31
0.0
  0
ARC
  5
6D
330
510
100
AcDbEntity
  8
GAIKEI
  6
HIDDEN2
 62
     1
100
AcDbCircle
 10
27.042688
 20
310.752256
 30
0.0
 40
0.15
100
AcDbArc
 50
90.0
 51
178.999999
  0
ARC
  5
6E
330
510
100
AcDbEntity
  8
GAIKEI
  6
HIDDEN2
 62
     1
100
AcDbCircle
 10
27.484927
 20
310.752256
 30
0.0
 40
0.15
100
AcDbArc
 50
1.0
 51
90.0
  0
LWPOLYLINE
  5
6F
330
510
100
AcDbEntity
  8
GAIKEI
  6
Continuous
 62
     1
100
AcDbPolyline
 90
       11
 70
     0
 43
0.0
 10
26.67777
 20
302.06356
 10
26.96097
 20
302.104655
 10
27.24444500000001
 20
302.143341
 10
27.528145
 20
302.179616
 10
27.81212
 20
302.213482
 10
28.096345
 20
302.244938
 10
28.38082
 20
302.273984
 10
28.66557
 20
302.3006200000001
 10
28.95057
 20
302.324846
 10
29.23582
 20
302.3466620000001
 10
29.52132
 20
302.366068
  0
LWPOLYLINE
  5
70
330
510
100
AcDbEntity
  8
GAIKEI
  6
Continuous
 62
     1
100
AcDbPolyline
 90
       11
 70
     0
 43
0.0
 10
31.671145
 20
302.4064
 10
32.94087000000001
 20
302.4064
 10
34.210595
 20
302.4064
 10
35.480295
 20
302.4064
 10
36.75002
 20
302.4064
 10
38.019745
 20
302.4064
 10
39.28947
 20
302.4064
 10
40.559195
 20
302.4064
 10
41.82892
 20
302.4064
 10
43.09864499999999
 20
302.4064
 10
44.36834499999999
 20
302.4064
  0
LINE
  5
71
330
510
100
AcDbEntity
  8
GAIKEI
  6
HIDDEN2
 62
     1
100
AcDbLine
 10
61.93871899999999
 20
304.807329
 30
0.0
 11
61.834904
 21
310.754873
 31
0.0
  0
LINE
  5
72
330
510
100
AcDbEntity
  8
GAIKEI
  6
HIDDEN2
 62
     1
100
AcDbLine
 10
60.98889599999999
 20
304.807329
 30
0.0
 11
61.092711
 21
310.754873
 31
0.0
  0
LWPOLYLINE
  5
73
330
510
100
AcDbEntity
  8
GAIKEI
  6
Continuous
 62
     1
100
AcDbPolyline
 90
       11
 70
     0
 43
0.0
 10
62.05484499999999
 20
302.06356
 10
61.772045
 20
302.104731
 10
61.48899499999999
 20
302.1434759999999
 10
61.205695
 20
302.179794
 10
60.92211999999999
 20
302.213686
 10
60.63829499999999
 20
302.24515
 10
60.35419499999999
 20
302.274187
 10
60.06986999999999
 20
302.300798
 10
59.78526999999999
 20
302.324982
 10
59.50039499999999
 20
302.346738
 10
59.215295
 20
302.366068
  0
LINE
  5
74
330
510
100
AcDbEntity
  8
GAIKEI
  6
Continuous
 62
     1
100
AcDbLine
 10
58.76949499999999
 20
305.0578220000001
 30
0.0
 11
58.76949499999999
 21
304.907822
 31
0.0
  0
LINE
  5
75
330
510
100
AcDbEntity
  8
GAIKEI
  6
Continuous
 62
     1
100
AcDbLine
 10
58.76949499999999
 20
304.907822
 30
0.0
 11
58.76949499999999
 21
304.802256
 31
0.0
  0
LWPOLYLINE
  5
76
330
510
100
AcDbEntity
  8
GAIKEI
  6
Continuous
 62
     1
100
AcDbPolyline
 90
       51
 70
     0
 43
0.0
 10
59.215295
 20
302.366068
 10
59.17417
 20
302.368853
 10
59.13304499999999
 20
302.371498
 10
59.09192
 20
302.373992
 10
59.05079499999999
 20
302.376324
 10
59.00966999999999
 20
302.378481
 10
58.96854499999999
 20
302.380451
 10
58.927395
 20
302.382224
 10
58.88626999999999
 20
302.383786
 10
58.84511999999999
 20
302.385127
 10
58.803945
 20
302.386234
 10
58.78057
 20
302.386758
 10
58.75716999999999
 20
302.387216
 10
58.73376999999999
 20
302.387624
 10
58.71037
 20
302.387996
 10
58.68697
 20
302.388346
 10
58.66356999999999
 20
302.388689
 10
58.64017
 20
302.389038
 10
58.61677
 20
302.389408
 10
58.59337
 20
302.389814
 10
58.56996999999999
 20
302.390269
 10
58.541745
 20
302.390898
 10
58.51349499999999
 20
302.391605
 10
58.48526999999999
 20
302.392377
 10
58.457045
 20
302.393198
 10
58.42879499999999
 20
302.394054
 10
58.40056999999999
 20
302.394929
 10
58.372345
 20
302.39581
 10
58.34412
 20
302.396681
 10
58.31586999999999
 20
302.397529
 10
58.287645
 20
302.398337
 10
58.22836999999999
 20
302.39987
 10
58.169095
 20
302.401188
 10
58.10981999999999
 20
302.40231
 10
58.05051999999999
 20
302.403258
 10
57.99124499999999
 20
302.404052
 10
57.93194499999999
 20
302.40471
 10
57.872645
 20
302.4052549999999
 10
57.81336999999999
 20
302.405704
 10
57.75407
 20
302.406079
 10
57.69477
 20
302.4064
 10
57.63144499999999
 20
302.4067
 10
57.56812
 20
302.406953
 10
57.50479499999999
 20
302.407152
 10
57.44146999999999
 20
302.407289
 10
57.37814499999999
 20
302.407357
 10
57.31481999999999
 20
302.407349
 10
57.251495
 20
302.407256
 10
57.18816999999999
 20
302.407072
 10
57.12484499999999
 20
302.406789
 10
57.06151999999999
 20
302.4064
  0
LINE
  5
77
330
510
100
AcDbEntity
  8
GAIKEI
  6
Continuous
 62
     1
100
AcDbLine
 10
62.45531999999999
 20
305.0578220000001
 30
0.0
 11
62.45814499999999
 21
305.0578220000001
 31
0.0
  0
LINE
  5
78
330
510
100
AcDbEntity
  8
GAIKEI
  6
Continuous
 62
     1
100
AcDbLine
 10
62.51594499999999
 20
305.015591
 30
0.0
 11
62.51636999999999
 21
305.012231
 31
0.0
  0
LINE
  5
79
330
510
100
AcDbEntity
  8
GAIKEI
  6
Continuous
 62
     1
100
AcDbLine
 10
62.47026999999999
 20
305.0578220000001
 30
0.0
 11
62.48334499999999
 21
305.054921
 31
0.0
  0
LINE
  5
7A
330
510
100
AcDbEntity
  8
GAIKEI
  6
Continuous
 62
     1
100
AcDbLine
 10
62.52289499999999
 20
304.859069
 30
0.0
 11
62.52521999999999
 21
304.802256
 31
0.0
  0
ARC
  5
7B
330
510
100
AcDbEntity
  8
GAIKEI
  6
Continuous
100
AcDbCircle
 10
62.69559499999999
 20
304.752256
 30
0.0
 40
0.05
100
AcDbArc
 50
2.445813999999999
 51
90.0
  0
LWPOLYLINE
  5
7C
330
510
100
AcDbEntity
  8
GAIKEI
  6
Continuous
 62
     1
100
AcDbPolyline
 90
       18
 70
     0
 43
0.0
 10
62.45531999999999
 20
305.0578220000001
 10
62.45089499999999
 20
305.057618
 10
62.44651999999999
 20
305.057008
 10
62.44219499999999
 20
305.0559970000001
 10
62.43799499999999
 20
305.054593
 10
62.43392
 20
305.052807
 10
62.43004499999999
 20
305.050654
 10
62.426345
 20
305.048152
 10
62.422895
 20
305.045321
 10
62.41972
 20
305.042184
 10
62.41681999999999
 20
305.038767
 10
62.41424499999999
 20
305.035097
 10
62.411995
 20
305.031205
 10
62.41011999999999
 20
305.027122
 10
62.408595
 20
305.022882
 10
62.40744499999999
 20
305.018519
 10
62.40669499999999
 20
305.014069
 10
62.40634499999999
 20
305.009567
  0
LWPOLYLINE
  5
7D
330
510
100
AcDbEntity
  8
GAIKEI
  6
Continuous
 62
     1
100
AcDbPolyline
 90
       18
 70
     0
 43
0.0
 10
62.35296999999999
 20
304.8078220000001
 10
62.357395
 20
304.808026
 10
62.36176999999999
 20
304.808636
 10
62.366095
 20
304.809648
 10
62.370295
 20
304.811052
 10
62.37436999999999
 20
304.812838
 10
62.37824499999999
 20
304.81499
 10
62.38194499999999
 20
304.817493
 10
62.38539499999999
 20
304.820324
 10
62.38856999999999
 20
304.823461
 10
62.39146999999999
 20
304.826878
 10
62.394045
 20
304.830547
 10
62.39629499999999
 20
304.834439
 10
62.39816999999999
 20
304.838522
 10
62.39969499999999
 20
304.842763
 10
62.400845
 20
304.847126
 10
62.40159499999999
 20
304.851576
 10
62.401945
 20
304.856077
  0
LINE
  5
7E
330
510
100
AcDbEntity
  8
GAIKEI
  6
Continuous
 62
     1
100
AcDbLine
 10
62.40202
 20
304.856078
 30
0.0
 11
62.40349499999999
 21
304.907822
 31
0.0
  0
ARC
  5
7F
330
510
100
AcDbEntity
  8
GAIKEI
  6
Continuous
 62
     1
100
AcDbCircle
 10
62.46654499999999
 20
305.007822
 30
0.0
 40
0.05
100
AcDbArc
 50
8.938703
 51
70.387012
  0
LINE
  5
80
330
510
100
AcDbEntity
  8
GAIKEI
  6
Continuous
 62
     1
100
AcDbLine
 10
62.51636999999999
 20
305.012231
 30
0.0
 11
62.52081999999999
 21
304.907822
 31
0.0
  0
LINE
  5
81
330
510
100
AcDbEntity
  8
GAIKEI
  6
Continuous
 62
     1
100
AcDbLine
 10
62.47026999999999
 20
305.0578220000001
 30
0.0
 11
62.45814499999999
 21
305.0578220000001
 31
0.0
  0
LINE
  5
82
330
510
100
AcDbEntity
  8
GAIKEI
  6
Continuous
 62
     1
100
AcDbLine
 10
62.40349499999999
 20
304.907822
 30
0.0
 11
62.406395
 21
305.009568
 31
0.0
  0
LINE
  5
83
330
510
100
AcDbEntity
  8
GAIKEI
  6
Continuous
 62
     1
100
AcDbLine
 10
62.52081999999999
 20
304.907822
 30
0.0
 11
62.52289499999999
 21
304.859069
 31
0.0
  0
LWPOLYLINE
  5
84
330
510
100
AcDbEntity
  8
GAIKEI
  6
Continuous
100
AcDbPolyline
 90
       51
 70
     0
 43
0.0
 10
62.420545
 20
302.602927
 10
62.43172
 20
302.603522
 10
62.44289499999999
 20
302.604015
 10
62.45407
 20
302.6044
 10
62.46524499999999
 20
302.60467
 10
62.47644499999999
 20
302.604818
 10
62.48761999999999
 20
302.604837
 10
62.49881999999999
 20
302.6047200000001
 10
62.50999499999999
 20
302.60446
 10
62.521145
 20
302.60405
 10
62.53232
 20
302.603483
 10
62.54051999999999
 20
302.602963
 10
62.54874499999999
 20
302.602366
 10
62.55694499999999
 20
302.601706
 10
62.56514499999999
 20
302.600994
 10
62.57334499999999
 20
302.6002430000001
 10
62.58154499999999
 20
302.599467
 10
62.58974499999999
 20
302.5986759999999
 10
62.59794499999999
 20
302.597885
 10
62.60614499999999
 20
302.597105
 10
62.614345
 20
302.596349
 10
62.62541999999999
 20
302.595381
 10
62.63649499999999
 20
302.594454
 10
62.64756999999999
 20
302.593546
 10
62.65867
 20
302.592632
 10
62.66971999999999
 20
302.591687
 10
62.68079499999999
 20
302.590686
 10
62.69184499999999
 20
302.589607
 10
62.702895
 20
302.588424
 10
62.71391999999999
 20
302.587113
 10
62.72491999999999
 20
302.5856490000001
 10
62.73537
 20
302.584099
 10
62.74576999999999
 20
302.582396
 10
62.75617
 20
302.58055
 10
62.76654499999999
 20
302.578567
 10
62.77692
 20
302.576456
 10
62.787245
 20
302.574224
 10
62.79754499999999
 20
302.57188
 10
62.80784499999999
 20
302.569431
 10
62.81811999999999
 20
302.566884
 10
62.82834499999999
 20
302.564249
 10
62.83882
 20
302.56146
 10
62.84926999999999
 20
302.558583
 10
62.859695
 20
302.555617
 10
62.87009499999999
 20
302.552558
 10
62.88046999999999
 20
302.549405
 10
62.89079499999999
 20
302.546156
 10
62.90109499999999
 20
302.542807
 10
62.91136999999999
 20
302.539358
 10
62.921595
 20
302.535806
 10
62.93179499999999
 20
302.532148
  0
LWPOLYLINE
  5
85
330
510
100
AcDbEntity
  8
GAIKEI
  6
Continuous
 62
     1
100
AcDbPolyline
 90
       11
 70
     0
 43
0.0
 10
62.06294499999999
 20
302.06356
 10
62.06211999999999
 20
302.06356
 10
62.06132
 20
302.06356
 10
62.06051999999999
 20
302.06356
 10
62.059695
 20
302.06356
 10
62.05889499999999
 20
302.06356
 10
62.05807
 20
302.06356
 10
62.05726999999999
 20
302.06356
 10
62.056445
 20
302.06356
 10
62.055645
 20
302.06356
 10
62.05484499999999
 20
302.06356
  0
LWPOLYLINE
  5
86
330
510
100
AcDbEntity
  8
GAIKEI
  6
Continuous
 62
     1
100
AcDbPolyline
 90
       11
 70
     0
 43
0.0
 10
62.821245
 20
302.019193
 10
62.74511999999999
 20
302.018824
 10
62.66904499999999
 20
302.019523
 10
62.59304499999999
 20
302.021289
 10
62.51712
 20
302.024124
 10
62.44124499999999
 20
302.028026
 10
62.36544499999999
 20
302.032997
 10
62.28971999999999
 20
302.039035
 10
62.214045
 20
302.046142
 10
62.13847
 20
302.054317
 10
62.06294499999999
 20
302.06356
  0
LWPOLYLINE
  5
87
330
510
100
AcDbEntity
  8
GAIKEI
  6
Continuous
 62
     1
100
AcDbPolyline
 90
       11
 70
     0
 43
0.0
 10
63.87396999999999
 20
302.023228
 10
63.76951999999999
 20
302.0220950000001
 10
63.66504499999999
 20
302.021125
 10
63.56056999999999
 20
302.020317
 10
63.456095
 20
302.01967
 10
63.35162
 20
302.019186
 10
63.24714499999999
 20
302.018863
 10
63.14267
 20
302.018703
 10
63.03819499999999
 20
302.018704
 10
62.93371999999999
 20
302.018868
 10
62.829245
 20
302.019193
  0
LWPOLYLINE
  5
88
330
510
100
AcDbEntity
  8
GAIKEI
  6
Continuous
100
AcDbPolyline
 90
       11
 70
     0
 43
0.0
 10
63.88199499999999
 20
302.353965
 10
63.78731999999999
 20
302.369287
 10
63.69269499999999
 20
302.384968
 10
63.59816999999999
 20
302.40101
 10
63.50366999999999
 20
302.41741
 10
63.40926999999999
 20
302.434171
 10
63.31489499999999
 20
302.451291
 10
63.22061999999999
 20
302.468771
 10
63.12639499999999
 20
302.48661
 10
63.03221999999999
 20
302.504809
 10
62.93814499999999
 20
302.523368
  0
LWPOLYLINE
  5
89
330
510
100
AcDbEntity
  8
GAIKEI
  6
Continuous
100
AcDbPolyline
 90
       11
 70
     0
 43
0.0
 10
63.88199499999999
 20
302.353965
 10
63.78731999999999
 20
302.369287
 10
63.69269499999999
 20
302.384968
 10
63.59816999999999
 20
302.40101
 10
63.50366999999999
 20
302.41741
 10
63.40926999999999
 20
302.434171
 10
63.31489499999999
 20
302.451291
 10
63.22061999999999
 20
302.468771
 10
63.12639499999999
 20
302.48661
 10
63.03221999999999
 20
302.504809
 10
62.93814499999999
 20
302.523368
  0
LWPOLYLINE
  5
8A
330
510
100
AcDbEntity
  8
GAIKEI
  6
Continuous
100
AcDbPolyline
 90
       11
 70
     0
 43
0.0
 10
63.88199499999999
 20
302.353965
 10
63.78731999999999
 20
302.369287
 10
63.69269499999999
 20
302.384968
 10
63.59816999999999
 20
302.40101
 10
63.50366999999999
 20
302.41741
 10
63.40926999999999
 20
302.434171
 10
63.31489499999999
 20
302.451291
 10
63.22061999999999
 20
302.468771
 10
63.12639499999999
 20
302.48661
 10
63.03221999999999
 20
302.504809
 10
62.93814499999999
 20
302.523368
  0
LWPOLYLINE
  5
8B
330
510
100
AcDbEntity
  8
GAIKEI
  6
Continuous
100
AcDbPolyline
 90
       11
 70
     0
 43
0.0
 10
63.88199499999999
 20
302.353965
 10
63.78731999999999
 20
302.369287
 10
63.69269499999999
 20
302.384968
 10
63.59816999999999
 20
302.40101
 10
63.50366999999999
 20
302.41741
 10
63.40926999999999
 20
302.434171
 10
63.31489499999999
 20
302.451291
 10
63.22061999999999
 20
302.468771
 10
63.12639499999999
 20
302.48661
 10
63.03221999999999
 20
302.504809
 10
62.93814499999999
 20
302.523368
  0
LWPOLYLINE
  5
8C
330
510
100
AcDbEntity
  8
GAIKEI
  6
Continuous
100
AcDbPolyline
 90
       13
 70
     0
 43
0.0
 10
63.88199499999999
 20
302.353965
 10
63.93689499999999
 20
302.334111
 10
63.99106999999999
 20
302.312664
 10
64.044495
 20
302.289623
 10
64.09721999999999
 20
302.26499
 10
64.14922
 20
302.238762
 10
64.20049499999999
 20
302.210942
 10
64.25104499999999
 20
302.181528
 10
64.30084499999999
 20
302.15052
 10
64.34994499999999
 20
302.11792
 10
64.39829499999999
 20
302.0837259999999
 42
-0.229639
 10
64.43960699999999
 20
302.007884
 10
64.456637
 20
301.6828220000001
  0
LWPOLYLINE
  5
8D
330
510
100
AcDbEntity
  8
GAIKEI
  6
Continuous
 62
     1
100
AcDbPolyline
 90
       67
 70
     0
 43
0.0
 10
64.402295
 20
302.0837259999999
 10
64.40114499999999
 20
302.08113
 10
64.399895
 20
302.078656
 10
64.39856999999999
 20
302.076306
 10
64.39712
 20
302.074082
 10
64.39556999999999
 20
302.071988
 10
64.393895
 20
302.070027
 10
64.392145
 20
302.068201
 10
64.39027
 20
302.066512
 10
64.38826999999999
 20
302.064964
 10
64.38616999999999
 20
302.06356
 10
64.38541999999999
 20
302.063101
 10
64.38464499999999
 20
302.062659
 10
64.38384499999999
 20
302.062231
 10
64.383045
 20
302.061817
 10
64.38221999999999
 20
302.061414
 10
64.38141999999999
 20
302.061022
 10
64.380595
 20
302.0606390000001
 10
64.379745
 20
302.060262
 10
64.37891999999999
 20
302.059892
 10
64.37806999999999
 20
302.059525
 10
64.36884499999999
 20
302.055738
 10
64.35947
 20
302.052343
 10
64.34999499999999
 20
302.049339
 10
64.340395
 20
302.046729
 10
64.33069499999999
 20
302.044512
 10
64.32092
 20
302.042689
 10
64.31107
 20
302.041262
 10
64.30117
 20
302.040231
 10
64.29124499999999
 20
302.039596
 10
64.281295
 20
302.039359
 10
64.28069499999999
 20
302.039358
 10
64.28009499999999
 20
302.039357
 10
64.279495
 20
302.039357
 10
64.27889499999999
 20
302.039358
 10
64.278295
 20
302.039359
 10
64.277695
 20
302.039359
 10
64.268795
 20
302.03927
 10
64.25184499999999
 20
302.038634
 10
64.23487
 20
302.037504
 10
64.21791999999999
 20
302.036019
 10
64.20094499999999
 20
302.034316
 10
64.18401999999999
 20
302.032535
 10
64.16706999999999
 20
302.030814
 10
64.15014499999999
 20
302.029291
 10
64.13321999999999
 20
302.028106
 10
64.11632
 20
302.027396
 10
64.10746999999999
 20
302.02726
 10
64.106645
 20
302.027256
 10
64.105845
 20
302.0272540000001
 10
64.10502
 20
302.027253
 10
64.10422
 20
302.027253
 10
64.10341999999999
 20
302.0272540000001
 10
64.10259499999999
 20
302.027255
 10
64.10179499999999
 20
302.0272569999999
 10
64.10096999999999
 20
302.027259
 10
64.10016999999999
 20
302.027261
 10
64.08967
 20
302.027274
 10
64.06949499999999
 20
302.027223
 10
64.04931999999999
 20
302.027073
 10
64.02916999999999
 20
302.02683
 10
64.008995
 20
302.026496
 10
63.98882
 20
302.026076
 10
63.96867
 20
302.025574
 10
63.94849499999999
 20
302.024994
 10
63.92834499999999
 20
302.02434
 10
63.87396999999999
 20
302.023228
  0
LINE
  5
8E
330
510
100
AcDbEntity
  8
GAIKEI
  6
Continuous
100
AcDbLine
 10
62.83894499999999
 20
302.567807
 30
0.0
 11
62.74554499999999
 21
304.75439
 31
0.0
  0
CIRCLE
  5
8F
330
510
100
AcDbEntity
  8
GAIKEI
  6
HIDDEN2
 62
     1
100
AcDbCircle
 10
61.46380699999999
 20
306.977256
 30
0.0
 40
0.05
  0
CIRCLE
  5
90
330
510
100
AcDbEntity
  8
GAIKEI
  6
HIDDEN2
 62
     1
100
AcDbCircle
 10
61.46380699999999
 20
309.227256
 30
0.0
 40
0.05
  0
LINE
  5
91
330
510
100
AcDbEntity
  8
GAIKEI
  6
HIDDEN2
 62
     1
100
AcDbLine
 10
61.684927
 20
310.902256
 30
0.0
 11
61.242688
 21
310.902256
 31
0.0
  0
ARC
  5
92
330
510
100
AcDbEntity
  8
GAIKEI
  6
HIDDEN2
 62
     1
100
AcDbCircle
 10
61.684927
 20
310.752256
 30
0.0
 40
0.15
100
AcDbArc
 50
1.000000999999999
 51
90.0
  0
ARC
  5
93
330
510
100
AcDbEntity
  8
GAIKEI
  6
HIDDEN2
 62
     1
100
AcDbCircle
 10
61.242688
 20
310.752256
 30
0.0
 40
0.15
100
AcDbArc
 50
90.0
 51
179.0
  0
ENDBLK
  5
95
330
510
100
AcDbEntity
  8
0
100
AcDbBlockEnd
  0
BLOCK
  5
513
330
512
100
AcDbEntity
  8
0
100
AcDbBlockBegin
  2
ＳＴ０５Ｙ
 70
     0
 10
0.0
 20
0.0
 30
0.0
  3
ＳＴ０５Ｙ
  1

  0
ARC
  5
119
330
512
100
AcDbEntity
  8
GAIKEI
100
AcDbCircle
 10
106.09872
 20
261.832822
 30
0.0
 40
40.725
100
AcDbArc
 50
84.67905599999999
 51
90.0
  0
LINE
  5
11A
330
512
100
AcDbEntity
  8
GAIKEI
100
AcDbLine
 10
110.812995
 20
301.6828220000001
 30
0.0
 11
94.81934499999999
 21
301.6828220000001
 31
0.0
  0
LINE
  5
11B
330
512
100
AcDbEntity
  8
GAIKEI
 62
     1
100
AcDbLine
 10
110.812995
 20
301.732822
 30
0.0
 11
94.81934499999999
 21
301.732822
 31
0.0
  0
ARC
  5
11C
330
512
100
AcDbEntity
  8
GAIKEI
100
AcDbCircle
 10
103.29847
 20
217.557822
 30
0.0
 40
85.0
100
AcDbArc
 50
90.0
 51
95.10351000000001
  0
ARC
  5
11D
330
512
100
AcDbEntity
  8
GAIKEI
100
AcDbCircle
 10
96.04862
 20
298.734725
 30
0.0
 40
3.5
100
AcDbArc
 50
95.10351000000001
 51
110.133773
  0
LINE
  5
11E
330
512
100
AcDbEntity
  8
GAIKEI
100
AcDbLine
 10
94.81934499999999
 20
301.732822
 30
0.0
 11
94.81934499999999
 21
301.6828220000001
 31
0.0
  0
LINE
  5
11F
330
512
100
AcDbEntity
  8
GAIKEI
100
AcDbLine
 10
94.808845
 20
301.9328220000001
 30
0.0
 11
94.81934499999999
 21
301.732822
 31
0.0
  0
LINE
  5
120
330
512
100
AcDbEntity
  8
GAIKEI
100
AcDbLine
 10
94.808845
 20
301.9328220000001
 30
0.0
 11
94.811145
 21
301.976518
 31
0.0
  0
ARC
  5
121
330
512
100
AcDbEntity
  8
GAIKEI
100
AcDbCircle
 10
94.86107
 20
301.9739009999999
 30
0.0
 40
0.05
100
AcDbArc
 50
110.133773
 51
177.0
  0
ARC
  5
122
330
512
100
AcDbEntity
  8
GAIKEI
  6
PHANTOM
100
AcDbCircle
 10
96.04862
 20
298.734725
 30
0.0
 40
3.5
100
AcDbArc
 50
110.133773
 51
110.745418
  0
LINE
  5
126
330
512
100
AcDbEntity
  8
GAIKEI
  6
HIDDEN2
 62
     1
100
AcDbLine
 10
105.019106
 20
305.0578220000001
 30
0.0
 11
104.919567
 21
310.76044
 31
0.0
  0
ARC
  5
127
330
512
100
AcDbEntity
  8
GAIKEI
100
AcDbCircle
 10
105.990095
 20
305.007822
 30
0.0
 40
0.05
100
AcDbArc
 50
2.0
 51
90.0
  0
ARC
  5
128
330
512
100
AcDbEntity
  8
GAIKEI
100
AcDbCircle
 10
106.246395
 20
302.682555
 30
0.0
 40
0.125
100
AcDbArc
 50
182.0
 51
269.7928720000001
  0
LINE
  5
129
330
512
100
AcDbEntity
  8
GAIKEI
100
AcDbLine
 10
106.04007
 20
305.009567
 30
0.0
 11
106.121495
 21
302.678193
 31
0.0
  0
LINE
  5
12A
330
512
100
AcDbEntity
  8
GAIKEI
  6
HIDDEN2
 62
     1
100
AcDbLine
 10
104.073559
 20
304.812895
 30
0.0
 11
104.177374
 21
310.76044
 31
0.0
  0
ARC
  5
12B
330
512
100
AcDbEntity
  8
GAIKEI
100
AcDbCircle
 10
104.069895
 20
304.857822
 30
0.0
 40
0.05
100
AcDbArc
 50
270.0
 51
0.0
  0
ARC
  5
12C
330
512
100
AcDbEntity
  8
GAIKEI
100
AcDbCircle
 10
104.169895
 20
305.007822
 30
0.0
 40
0.05
100
AcDbArc
 50
90.0
 51
180.0
  0
LINE
  5
12D
330
512
100
AcDbEntity
  8
GAIKEI
100
AcDbLine
 10
104.119895
 20
305.007822
 30
0.0
 11
104.119895
 21
304.857822
 31
0.0
  0
LINE
  5
12E
330
512
100
AcDbEntity
  8
GAIKEI
100
AcDbLine
 10
102.748095
 20
304.8078220000001
 30
0.0
 11
104.069895
 21
304.8078220000001
 31
0.0
  0
ARC
  5
12F
330
512
100
AcDbEntity
  8
GAIKEI
100
AcDbCircle
 10
102.748095
 20
304.7578220000001
 30
0.0
 40
0.05
100
AcDbArc
 50
90.0
 51
178.0
  0
ARC
  5
130
330
512
100
AcDbEntity
  8
GAIKEI
100
AcDbCircle
 10
102.500395
 20
302.679081
 30
0.0
 40
0.125
100
AcDbArc
 50
270.537165
 51
358.0
  0
LINE
  5
131
330
512
100
AcDbEntity
  8
GAIKEI
100
AcDbLine
 10
102.698145
 20
304.759567
 30
0.0
 11
102.62532
 21
302.674719
 31
0.0
  0
ARC
  5
132
330
512
100
AcDbEntity
  8
GAIKEI
  6
HIDDEN2
 62
     1
100
AcDbCircle
 10
104.327351
 20
310.7578220000001
 30
0.0
 40
0.15
100
AcDbArc
 50
90.0
 51
179.0
  0
LINE
  5
133
330
512
100
AcDbEntity
  8
GAIKEI
  6
HIDDEN2
 62
     1
100
AcDbLine
 10
104.327351
 20
310.907822
 30
0.0
 11
104.769589
 21
310.907822
 31
0.0
  0
LINE
  5
134
330
512
100
AcDbEntity
  8
GAIKEI
100
AcDbLine
 10
104.169895
 20
305.0578220000001
 30
0.0
 11
105.990095
 21
305.0578220000001
 31
0.0
  0
LINE
  5
135
330
512
100
AcDbEntity
  8
GAIKEI
100
AcDbLine
 10
106.09872
 20
302.557822
 30
0.0
 11
103.29847
 21
302.557822
 31
0.0
  0
ARC
  5
136
330
512
100
AcDbEntity
  8
GAIKEI
  6
HIDDEN2
 62
     1
100
AcDbCircle
 10
104.769589
 20
310.7578220000001
 30
0.0
 40
0.15
100
AcDbArc
 50
1.000000999999999
 51
90.0
  0
ARC
  5
137
330
512
100
AcDbEntity
  8
GAIKEI
100
AcDbCircle
 10
110.763195
 20
302.127356
 30
0.0
 40
0.05
100
AcDbArc
 50
3.0
 51
69.425302
  0
LINE
  5
138
330
512
100
AcDbEntity
  8
GAIKEI
100
AcDbLine
 10
110.812995
 20
301.732822
 30
0.0
 11
110.812995
 21
301.6828220000001
 31
0.0
  0
LINE
  5
139
330
512
100
AcDbEntity
  8
GAIKEI
100
AcDbLine
 10
110.82347
 20
301.9328220000001
 30
0.0
 11
110.812995
 21
301.732822
 31
0.0
  0
LINE
  5
13A
330
512
100
AcDbEntity
  8
GAIKEI
100
AcDbLine
 10
110.82347
 20
301.9328220000001
 30
0.0
 11
110.813145
 21
302.129973
 31
0.0
  0
ARC
  5
13B
330
512
100
AcDbEntity
  8
GAIKEI
100
AcDbCircle
 10
109.55077
 20
298.897415
 30
0.0
 40
3.5
100
AcDbArc
 50
69.425302
 51
84.67905599999999
  0
ENDBLK
  5
13D
330
512
100
AcDbEntity
  8
0
100
AcDbBlockEnd
  0
ENDSEC
  0
SECTION
  2
ENTITIES
  0
TEXT
  5
29
330
4EF
100
AcDbEntity
  8
MOJI1
100
AcDbText
 10
27.0
 20
109.0
 30
0.0
 40
4.0
  1
プラズマディスプレイ据置きスタンド付
100
AcDbText
  0
TEXT
  5
2B
330
4EF
100
AcDbEntity
  8
TOUROKU
100
AcDbText
 10
87.39995000000002
 20
103.0
 30
0.0
 40
2.0
  1
ＴＨ３７ＰＷＤ６－ＴＹＳＴ０５Ｋ
 72
     2
 11
124.99995
 21
103.0
 31
0.0
100
AcDbText
  0
INSERT
  5
45
330
4EF
100
AcDbEntity
  8
MOJI1
100
AcDbBlockReference
  2
ＳＴ０５
 10
-0.517007
 20
-245.993404
 30
0.0
  0
INSERT
  5
A4
330
4EF
100
AcDbEntity
  8
GAIKEI
100
AcDbBlockReference
  2
37
 10
-112.98859
 20
-6.53398
 30
0.0
  0
INSERT
  5
117
330
4EF
100
AcDbEntity
  8
MOJI1
100
AcDbBlockReference
  2
ＳＴ０５Ｙ
 10
-6.417599
 20
-245.993405
 30
0.0
  0
INSERT
  5
14B
330
4EF
100
AcDbEntity
  8
GAIKEI
100
AcDbBlockReference
  2
37Y
 10
-108.42698
 20
-6.53398
 30
0.0
  0
LINE
  5
1BC
330
4EF
100
AcDbEntity
  8
WAKU
 62
     1
100
AcDbLine
 10
0.0
 20
25.0
 30
0.0
 11
125.0
 21
25.0
 31
0.0
  0
LINE
  5
1BE
330
4EF
100
AcDbEntity
  8
WAKU
 62
     1
100
AcDbLine
 10
0.0
 20
15.0
 30
0.0
 11
125.0
 21
15.0
 31
0.0
  0
LINE
  5
1BF
330
4EF
100
AcDbEntity
  8
WAKU
 62
     4
100
AcDbLine
 10
0.0
 20
35.0
 30
0.0
 11
125.0
 21
35.0
 31
0.0
  0
LINE
  5
1C0
330
4EF
100
AcDbEntity
  8
WAKU
 62
     1
100
AcDbLine
 10
0.0
 20
30.0
 30
0.0
 11
125.0
 21
30.0
 31
0.0
  0
LINE
  5
1C1
330
4EF
100
AcDbEntity
  8
WAKU
 62
     1
100
AcDbLine
 10
0.0
 20
20.0
 30
0.0
 11
125.0
 21
20.0
 31
0.0
  0
LINE
  5
1C2
330
4EF
100
AcDbEntity
  8
WAKU
 62
     1
100
AcDbLine
 10
0.0
 20
10.0
 30
0.0
 11
125.0
 21
10.0
 31
0.0
  0
LINE
  5
1C3
330
4EF
100
AcDbEntity
  8
WAKU
 62
     1
100
AcDbLine
 10
0.0
 20
5.0
 30
0.0
 11
125.0
 21
5.0
 31
0.0
  0
LINE
  5
1C4
330
4EF
100
AcDbEntity
  8
WAKU
 62
     4
100
AcDbLine
 10
125.0
 20
0.0
 30
0.0
 11
0.0
 21
0.0
 31
0.0
  0
LINE
  5
1C5
330
4EF
100
AcDbEntity
  8
WAKU
 62
     4
100
AcDbLine
 10
0.0
 20
35.0
 30
0.0
 11
0.0
 21
0.0
 31
0.0
  0
TEXT
  5
1C6
330
4EF
100
AcDbEntity
  8
MOJI1
100
AcDbText
 10
2.5
 20
16.0
 30
0.0
 40
3.0
  1
画素数
100
AcDbText
  0
LINE
  5
1C8
330
4EF
100
AcDbEntity
  8
WAKU
 62
     4
100
AcDbLine
 10
40.0
 20
35.0
 30
0.0
 11
40.0
 21
0.0
 31
0.0
  0
LINE
  5
1C9
330
4EF
100
AcDbEntity
  8
WAKU
 62
     4
100
AcDbLine
 10
125.0
 20
35.0
 30
0.0
 11
125.0
 21
0.0
 31
0.0
  0
TEXT
  5
1CD
330
4EF
100
AcDbEntity
  8
MOJI1
100
AcDbText
 10
2.5
 20
6.0
 30
0.0
 40
3.0
  1
接続端子
100
AcDbText
  0
TEXT
  5
1CE
330
4EF
100
AcDbEntity
  8
MOJI1
100
AcDbText
 10
2.5
 20
11.0
 30
0.0
 40
3.0
  1
音声最大出力
100
AcDbText
  0
TEXT
  5
1D2
330
4EF
100
AcDbEntity
  8
MOJI1
100
AcDbText
 10
2.5
 20
21.0
 30
0.0
 40
3.0
  1
パネルサイズ
100
AcDbText
  0
TEXT
  5
1D3
330
4EF
100
AcDbEntity
  8
MOJI1
100
AcDbText
 10
2.5
 20
26.0
 30
0.0
 40
3.0
  1
消費電力
100
AcDbText
  0
TEXT
  5
1D4
330
4EF
100
AcDbEntity
  8
MOJI1
100
AcDbText
 10
2.5
 20
31.0
 30
0.0
 40
3.0
  1
電  源
100
AcDbText
  0
LINE
  5
1D9
330
4EF
100
AcDbEntity
  8
SUNPO
100
AcDbLine
 10
95.64415699999999
 20
88.614417
 30
0.0
 11
95.64415699999999
 21
96.61441700000001
 31
0.0
  0
LINE
  5
1DA
330
4EF
100
AcDbEntity
  8
SUNPO
100
AcDbLine
 10
100.069157
 20
88.614417
 30
0.0
 11
100.069157
 21
96.61441700000001
 31
0.0
  0
LINE
  5
1DB
330
4EF
100
AcDbEntity
  8
SUNPO
100
AcDbLine
 10
93.644157
 20
94.61441699999999
 30
0.0
 11
91.64415699999999
 21
94.61441699999999
 31
0.0
  0
LINE
  5
1DC
330
4EF
100
AcDbEntity
  8
SUNPO
100
AcDbLine
 10
102.069157
 20
94.61441699999999
 30
0.0
 11
109.235824
 21
94.61441699999999
 31
0.0
  0
LINE
  5
1DD
330
4EF
100
AcDbEntity
  8
SUNPO
100
AcDbLine
 10
95.64415699999999
 20
94.61441699999999
 30
0.0
 11
100.069157
 21
94.61441699999999
 31
0.0
  0
POINT
  5
1E3
330
4EF
100
AcDbEntity
  8
SUNPO
100
AcDbPoint
 10
100.069157
 20
94.61441699999999
 30
0.0
  0
LINE
  5
1E4
330
4EF
100
AcDbEntity
  8
SUNPO
100
AcDbLine
 10
20.846775
 20
88.614417
 30
0.0
 11
20.846775
 21
96.61441700000001
 31
0.0
  0
LINE
  5
1E5
330
4EF
100
AcDbEntity
  8
SUNPO
100
AcDbLine
 10
66.84677499999999
 20
88.614417
 30
0.0
 11
66.84677499999999
 21
96.61441700000001
 31
0.0
  0
LINE
  5
1E6
330
4EF
100
AcDbEntity
  8
SUNPO
100
AcDbLine
 10
22.846775
 20
94.61441699999999
 30
0.0
 11
64.846775
 21
94.61441699999999
 31
0.0
  0
POINT
  5
1EC
330
4EF
100
AcDbEntity
  8
SUNPO
100
AcDbPoint
 10
66.84677499999999
 20
94.61441699999999
 30
0.0
  0
LINE
  5
1ED
330
4EF
100
AcDbEntity
  8
SUNPO
100
AcDbLine
 10
68.857104
 20
59.06441899999999
 30
0.0
 11
76.85710400000001
 21
59.06441899999999
 31
0.0
  0
LINE
  5
1EE
330
4EF
100
AcDbEntity
  8
SUNPO
100
AcDbLine
 10
68.857104
 20
86.614704
 30
0.0
 11
76.85710400000001
 21
86.614704
 31
0.0
  0
LINE
  5
1EF
330
4EF
100
AcDbEntity
  8
SUNPO
100
AcDbLine
 10
74.85710400000001
 20
61.064419
 30
0.0
 11
74.85710400000001
 21
84.61470400000001
 31
0.0
  0
POINT
  5
1F5
330
4EF
100
AcDbEntity
  8
SUNPO
100
AcDbPoint
 10
74.85710400000001
 20
86.614704
 30
0.0
  0
LINE
  5
1F6
330
4EF
100
AcDbEntity
  8
SUNPO
100
AcDbLine
 10
23.756562
 20
53.67978499999999
 30
0.0
 11
23.756562
 21
45.67978499999999
 31
0.0
  0
LINE
  5
1F7
330
4EF
100
AcDbEntity
  8
SUNPO
100
AcDbLine
 10
63.937012
 20
53.67978499999999
 30
0.0
 11
63.937012
 21
45.67978499999999
 31
0.0
  0
LINE
  5
1F8
330
4EF
100
AcDbEntity
  8
SUNPO
100
AcDbLine
 10
25.756562
 20
47.67978499999999
 30
0.0
 11
61.937012
 21
47.67978499999999
 31
0.0
  0
POINT
  5
1FE
330
4EF
100
AcDbEntity
  8
SUNPO
100
AcDbPoint
 10
63.937012
 20
47.67978499999999
 30
0.0
  0
LINE
  5
1FF
330
4EF
100
AcDbEntity
  8
SUNPO
100
AcDbLine
 10
68.857104
 20
59.06441899999999
 30
0.0
 11
76.85710400000001
 21
59.06441899999999
 31
0.0
  0
LINE
  5
200
330
4EF
100
AcDbEntity
  8
SUNPO
100
AcDbLine
 10
68.857104
 20
55.68941899999999
 30
0.0
 11
76.85710400000001
 21
55.68941899999999
 31
0.0
  0
LINE
  5
201
330
4EF
100
AcDbEntity
  8
SUNPO
100
AcDbLine
 10
74.85710400000001
 20
61.064419
 30
0.0
 11
74.85710400000001
 21
63.06441899999999
 31
0.0
  0
LINE
  5
202
330
4EF
100
AcDbEntity
  8
SUNPO
100
AcDbLine
 10
74.85710400000001
 20
53.68941899999999
 30
0.0
 11
74.85710400000001
 21
41.522752
 31
0.0
  0
LINE
  5
203
330
4EF
100
AcDbEntity
  8
SUNPO
100
AcDbLine
 10
74.85710400000001
 20
59.06441899999999
 30
0.0
 11
74.85710400000001
 21
55.68941899999999
 31
0.0
  0
POINT
  5
209
330
4EF
100
AcDbEntity
  8
SUNPO
100
AcDbPoint
 10
74.85710400000001
 20
55.68941899999999
 30
0.0
  0
LINE
  5
20A
330
4EF
100
AcDbEntity
  8
SUNPO
100
AcDbLine
 10
88.39124599999999
 20
53.679784
 30
0.0
 11
88.39124599999999
 21
45.679784
 31
0.0
  0
LINE
  5
20B
330
4EF
100
AcDbEntity
  8
SUNPO
100
AcDbLine
 10
104.405871
 20
53.679784
 30
0.0
 11
104.405871
 21
45.679784
 31
0.0
  0
LINE
  5
20C
330
4EF
100
AcDbEntity
  8
SUNPO
100
AcDbLine
 10
90.39124599999999
 20
47.679784
 30
0.0
 11
102.405871
 21
47.679784
 31
0.0
  0
POINT
  5
212
330
4EF
100
AcDbEntity
  8
SUNPO
100
AcDbPoint
 10
104.405871
 20
47.679784
 30
0.0
  0
TEXT
  5
213
330
4EF
100
AcDbEntity
  8
SUNPO
100
AcDbText
 10
104.569157
 20
95.114417
 30
0.0
 40
2.5
  1
89
100
AcDbText
  0
TEXT
  5
214
330
4EF
100
AcDbEntity
  8
SUNPO
100
AcDbText
 10
40.513441
 20
95.114417
 30
0.0
 40
2.5
  1
920
100
AcDbText
  0
LINE
  5
215
330
4EF
100
AcDbEntity
  8
SUNPO
  6
ByBlock
100
AcDbLine
 10
22.846775
 20
94.078519
 30
0.0
 11
20.846775
 21
94.61441699999999
 31
0.0
  0
LINE
  5
216
330
4EF
100
AcDbEntity
  8
SUNPO
  6
ByBlock
100
AcDbLine
 10
20.846775
 20
94.61441699999999
 30
0.0
 11
22.846775
 21
95.150316
 31
0.0
  0
LINE
  5
217
330
4EF
100
AcDbEntity
  8
SUNPO
  6
ByBlock
100
AcDbLine
 10
20.846775
 20
94.61441699999999
 30
0.0
 11
22.846775
 21
94.61441699999999
 31
0.0
  0
LINE
  5
218
330
4EF
100
AcDbEntity
  8
SUNPO
  6
ByBlock
100
AcDbLine
 10
64.846775
 20
95.150316
 30
0.0
 11
66.84677499999999
 21
94.61441699999999
 31
0.0
  0
LINE
  5
219
330
4EF
100
AcDbEntity
  8
SUNPO
  6
ByBlock
100
AcDbLine
 10
66.84677499999999
 20
94.61441699999999
 30
0.0
 11
64.846775
 21
94.078519
 31
0.0
  0
LINE
  5
21A
330
4EF
100
AcDbEntity
  8
SUNPO
  6
ByBlock
100
AcDbLine
 10
66.84677499999999
 20
94.61441699999999
 30
0.0
 11
64.846775
 21
94.61441699999999
 31
0.0
  0
LINE
  5
21B
330
4EF
100
AcDbEntity
  8
SUNPO
  6
ByBlock
100
AcDbLine
 10
93.644157
 20
95.150316
 30
0.0
 11
95.64415699999999
 21
94.61441699999999
 31
0.0
  0
LINE
  5
21C
330
4EF
100
AcDbEntity
  8
SUNPO
  6
ByBlock
100
AcDbLine
 10
95.64415699999999
 20
94.61441699999999
 30
0.0
 11
93.644157
 21
94.078519
 31
0.0
  0
LINE
  5
21D
330
4EF
100
AcDbEntity
  8
SUNPO
  6
ByBlock
100
AcDbLine
 10
95.64415699999999
 20
94.61441699999999
 30
0.0
 11
93.644157
 21
94.61441699999999
 31
0.0
  0
LINE
  5
21E
330
4EF
100
AcDbEntity
  8
SUNPO
  6
ByBlock
100
AcDbLine
 10
102.069157
 20
94.078519
 30
0.0
 11
100.069157
 21
94.61441699999999
 31
0.0
  0
LINE
  5
21F
330
4EF
100
AcDbEntity
  8
SUNPO
  6
ByBlock
100
AcDbLine
 10
100.069157
 20
94.61441699999999
 30
0.0
 11
102.069157
 21
95.150316
 31
0.0
  0
LINE
  5
220
330
4EF
100
AcDbEntity
  8
SUNPO
  6
ByBlock
100
AcDbLine
 10
100.069157
 20
94.61441699999999
 30
0.0
 11
102.069157
 21
94.61441699999999
 31
0.0
  0
TEXT
  5
221
330
4EF
100
AcDbEntity
  8
SUNPO
100
AcDbText
 10
74.35710400000001
 20
42.022752
 30
0.0
 40
2.5
  1
67.5
 50
90.0
100
AcDbText
  0
LINE
  5
222
330
4EF
100
AcDbEntity
  8
SUNPO
  6
ByBlock
100
AcDbLine
 10
74.32120600000001
 20
53.68941899999999
 30
0.0
 11
74.85710400000001
 21
55.68941899999999
 31
0.0
  0
LINE
  5
223
330
4EF
100
AcDbEntity
  8
SUNPO
  6
ByBlock
100
AcDbLine
 10
74.85710400000001
 20
55.68941899999999
 30
0.0
 11
75.39300199999999
 21
53.68941899999999
 31
0.0
  0
LINE
  5
224
330
4EF
100
AcDbEntity
  8
SUNPO
  6
ByBlock
100
AcDbLine
 10
74.85710400000001
 20
55.68941899999999
 30
0.0
 11
74.85710400000001
 21
53.68941899999999
 31
0.0
  0
LINE
  5
225
330
4EF
100
AcDbEntity
  8
SUNPO
  6
ByBlock
100
AcDbLine
 10
75.39300199999999
 20
61.064419
 30
0.0
 11
74.85710400000001
 21
59.06441899999999
 31
0.0
  0
LINE
  5
226
330
4EF
100
AcDbEntity
  8
SUNPO
  6
ByBlock
100
AcDbLine
 10
74.85710400000001
 20
59.06441899999999
 30
0.0
 11
74.32120600000001
 21
61.064419
 31
0.0
  0
LINE
  5
227
330
4EF
100
AcDbEntity
  8
SUNPO
  6
ByBlock
100
AcDbLine
 10
74.85710400000001
 20
59.06441899999999
 30
0.0
 11
74.85710400000001
 21
61.064419
 31
0.0
  0
TEXT
  5
228
330
4EF
100
AcDbEntity
  8
SUNPO
100
AcDbText
 10
74.35710400000001
 20
69.50622800000001
 30
0.0
 40
2.5
  1
550
 50
90.0
100
AcDbText
  0
LINE
  5
229
330
4EF
100
AcDbEntity
  8
SUNPO
  6
ByBlock
100
AcDbLine
 10
74.32120600000001
 20
84.61470400000001
 30
0.0
 11
74.85710400000001
 21
86.614704
 31
0.0
  0
LINE
  5
22A
330
4EF
100
AcDbEntity
  8
SUNPO
  6
ByBlock
100
AcDbLine
 10
74.85710400000001
 20
86.614704
 30
0.0
 11
75.39300199999999
 21
84.61470400000001
 31
0.0
  0
LINE
  5
22B
330
4EF
100
AcDbEntity
  8
SUNPO
  6
ByBlock
100
AcDbLine
 10
74.85710400000001
 20
86.614704
 30
0.0
 11
74.85710400000001
 21
84.61470400000001
 31
0.0
  0
LINE
  5
22C
330
4EF
100
AcDbEntity
  8
SUNPO
  6
ByBlock
100
AcDbLine
 10
75.39300199999999
 20
61.064419
 30
0.0
 11
74.85710400000001
 21
59.06441899999999
 31
0.0
  0
LINE
  5
22D
330
4EF
100
AcDbEntity
  8
SUNPO
  6
ByBlock
100
AcDbLine
 10
74.85710400000001
 20
59.06441899999999
 30
0.0
 11
74.32120600000001
 21
61.064419
 31
0.0
  0
LINE
  5
22E
330
4EF
100
AcDbEntity
  8
SUNPO
  6
ByBlock
100
AcDbLine
 10
74.85710400000001
 20
59.06441899999999
 30
0.0
 11
74.85710400000001
 21
61.064419
 31
0.0
  0
LINE
  5
22F
330
4EF
100
AcDbEntity
  8
SUNPO
  6
ByBlock
100
AcDbLine
 10
25.756562
 20
47.14388699999999
 30
0.0
 11
23.756562
 21
47.67978499999999
 31
0.0
  0
LINE
  5
230
330
4EF
100
AcDbEntity
  8
SUNPO
  6
ByBlock
100
AcDbLine
 10
23.756562
 20
47.67978499999999
 30
0.0
 11
25.756562
 21
48.215683
 31
0.0
  0
LINE
  5
231
330
4EF
100
AcDbEntity
  8
SUNPO
  6
ByBlock
100
AcDbLine
 10
23.756562
 20
47.67978499999999
 30
0.0
 11
25.756562
 21
47.67978499999999
 31
0.0
  0
TEXT
  5
232
330
4EF
100
AcDbEntity
  8
SUNPO
100
AcDbText
 10
40.51345399999999
 20
48.17978499999999
 30
0.0
 40
2.5
  1
806
100
AcDbText
  0
LINE
  5
233
330
4EF
100
AcDbEntity
  8
SUNPO
  6
ByBlock
100
AcDbLine
 10
61.937012
 20
48.215683
 30
0.0
 11
63.937012
 21
47.67978499999999
 31
0.0
  0
LINE
  5
234
330
4EF
100
AcDbEntity
  8
SUNPO
  6
ByBlock
100
AcDbLine
 10
63.937012
 20
47.67978499999999
 30
0.0
 11
61.937012
 21
47.14388699999999
 31
0.0
  0
LINE
  5
235
330
4EF
100
AcDbEntity
  8
SUNPO
  6
ByBlock
100
AcDbLine
 10
63.937012
 20
47.67978499999999
 30
0.0
 11
61.937012
 21
47.67978499999999
 31
0.0
  0
TEXT
  5
236
330
4EF
100
AcDbEntity
  8
SUNPO
100
AcDbText
 10
90.56522599999999
 20
48.17978400000001
 30
0.0
 40
2.5
  1
320.3
100
AcDbText
  0
LINE
  5
237
330
4EF
100
AcDbEntity
  8
SUNPO
  6
ByBlock
100
AcDbLine
 10
90.39124599999999
 20
47.143885
 30
0.0
 11
88.39124599999999
 21
47.679784
 31
0.0
  0
LINE
  5
238
330
4EF
100
AcDbEntity
  8
SUNPO
  6
ByBlock
100
AcDbLine
 10
88.39124599999999
 20
47.679784
 30
0.0
 11
90.39124599999999
 21
48.215682
 31
0.0
  0
LINE
  5
239
330
4EF
100
AcDbEntity
  8
SUNPO
  6
ByBlock
100
AcDbLine
 10
88.39124599999999
 20
47.679784
 30
0.0
 11
90.39124599999999
 21
47.679784
 31
0.0
  0
LINE
  5
23A
330
4EF
100
AcDbEntity
  8
SUNPO
  6
ByBlock
100
AcDbLine
 10
102.405871
 20
48.215682
 30
0.0
 11
104.405871
 21
47.679784
 31
0.0
  0
LINE
  5
23B
330
4EF
100
AcDbEntity
  8
SUNPO
  6
ByBlock
100
AcDbLine
 10
104.405871
 20
47.679784
 30
0.0
 11
102.405871
 21
47.143885
 31
0.0
  0
LINE
  5
23C
330
4EF
100
AcDbEntity
  8
SUNPO
  6
ByBlock
100
AcDbLine
 10
104.405871
 20
47.679784
 30
0.0
 11
102.405871
 21
47.679784
 31
0.0
  0
TEXT
  5
51B
330
4EF
100
AcDbEntity
  8
MOJI1
100
AcDbText
 10
42.5
 20
1.0
 30
0.0
 40
3.0
  1
コンポーネントビデオ、シリアル
100
AcDbText
  0
TEXT
  5
51C
330
4EF
100
AcDbEntity
  8
MOJI1
100
AcDbText
 10
42.5
 20
6.0
 30
0.0
 40
3.0
  1
ビデオ／Ｓビデオ／ＰＣ／外部スピーカ
100
AcDbText
  0
TEXT
  5
51D
330
4EF
100
AcDbEntity
  8
MOJI1
100
AcDbText
 10
42.5
 20
11.0
 30
0.0
 40
3.0
  1
１６Ｗ（８Ｗ＋８Ｗ）
100
AcDbText
  0
TEXT
  5
51E
330
4EF
100
AcDbEntity
  8
MOJI1
100
AcDbText
 10
42.5
 20
16.0
 30
0.0
 40
3.0
  1
４０８９６０画素（水平８５２×垂直４８０）
100
AcDbText
  0
TEXT
  5
51F
330
4EF
100
AcDbEntity
  8
MOJI1
100
AcDbText
 10
42.5
 20
21.0
 30
0.0
 40
3.0
  1
３７型（１６：９）
100
AcDbText
  0
TEXT
  5
520
330
4EF
100
AcDbEntity
  8
MOJI1
100
AcDbText
 10
42.5
 20
26.0
 30
0.0
 40
3.0
  1
１９５Ｗ
100
AcDbText
  0
TEXT
  5
521
330
4EF
100
AcDbEntity
  8
MOJI1
100
AcDbText
 10
42.5
 20
31.0
 30
0.0
 40
3.0
  1
ＡＣ１００Ｖ　５０Ｈｚ／６０Ｈｚ
100
AcDbText
  0
ENDSEC
  0
SECTION
  2
OBJECTS
  0
DICTIONARY
  5
4DB
330
0
100
AcDbDictionary
281
     1
  3
ACAD_COLOR
350
4EA
  3
ACAD_GROUP
350
4DC
  3
ACAD_LAYOUT
350
4E8
  3
ACAD_MATERIAL
350
4E9
  3
ACAD_MLINESTYLE
350
4E5
  3
ACAD_PLOTSETTINGS
350
4E7
  3
ACAD_PLOTSTYLENAME
350
4DD
  3
ACDBHEADERROUNDTRIPXREC
350
526
  3
AcDbVariableDictionary
350
522
  0
DICTIONARY
  5
4EA
102
{ACAD_REACTORS
330
4DB
102
}
330
4DB
100
AcDbDictionary
281
     1
  0
DICTIONARY
  5
4DC
102
{ACAD_REACTORS
330
4DB
102
}
330
4DB
100
AcDbDictionary
281
     1
  0
DICTIONARY
  5
4E8
102
{ACAD_REACTORS
330
4DB
102
}
330
4DB
100
AcDbDictionary
281
     1
  3
Model
350
4F2
  3
レイアウト1
350
4EE
  0
DICTIONARY
  5
4E9
102
{ACAD_REACTORS
330
4DB
102
}
330
4DB
100
AcDbDictionary
281
     1
  0
DICTIONARY
  5
4E5
102
{ACAD_REACTORS
330
4DB
102
}
330
4DB
100
AcDbDictionary
281
     1
  3
Standard
350
4E6
  0
DICTIONARY
  5
4E7
102
{ACAD_REACTORS
330
4DB
102
}
330
4DB
100
AcDbDictionary
281
     1
  0
ACDBDICTIONARYWDFLT
  5
4DD
102
{ACAD_REACTORS
330
4DB
102
}
330
4DB
100
AcDbDictionary
281
     1
  3
Normal
350
4DE
100
AcDbDictionaryWithDefault
340
4DE
  0
DICTIONARY
  5
526
102
{ACAD_REACTORS
330
4DB
102
}
330
4DB
100
AcDbDictionary
281
     1
  3
COLORDICT
350
528
  3
MATERIALDICT
350
527
  0
DICTIONARY
  5
522
102
{ACAD_REACTORS
330
4DB
102
}
330
4DB
100
AcDbDictionary
281
     1
  3
DIMASSOC
350
523
  3
PROJECTNAME
350
524
  0
LAYOUT
  5
4F2
102
{ACAD_XDICTIONARY
360
52B
102
}
102
{ACAD_REACTORS
330
4E8
102
}
330
4E8
100
AcDbPlotSettings
  1

  2
\\Uranus\BFACN02M
  4

  6

 40
0.0
 41
0.0
 42
0.0
 43
0.0
 44
0.0
 45
0.0
 46
0.0
 47
0.0
 48
0.0
 49
0.0
140
0.0
141
0.0
142
1.0
143
1.0
 70
  1712
 72
     0
 73
     0
 74
     0
  7
SSC.ctb
 75
     0
147
1.0
148
0.0
149
0.0
100
AcDbLayout
  1
Model
 70
     1
 71
     0
 10
0.0
 20
0.0
 11
12.0
 21
9.0
 12
0.0
 22
0.0
 32
0.0
 14
0.0
 24
0.0
 34
0.0
 15
0.0
 25
0.0
 35
0.0
146
0.0
 13
0.0
 23
0.0
 33
0.0
 16
1.0
 26
0.0
 36
0.0
 17
0.0
 27
1.0
 37
0.0
 76
     0
330
4EF
  0
LAYOUT
  5
4EE
102
{ACAD_XDICTIONARY
360
529
102
}
102
{ACAD_REACTORS
330
4E8
102
}
330
4E8
100
AcDbPlotSettings
  1

  2
\\Uranus\BFACN02M
  4

  6

 40
0.0
 41
0.0
 42
0.0
 43
0.0
 44
0.0
 45
0.0
 46
0.0
 47
0.0
 48
0.0
 49
0.0
140
0.0
141
0.0
142
1.0
143
1.0
 70
   688
 72
     0
 73
     0
 74
     5
  7
SSC.ctb
 75
    16
147
1.0
148
0.0
149
0.0
100
AcDbLayout
  1
レイアウト1
 70
     1
 71
     1
 10
0.0
 20
0.0
 11
12.0
 21
9.0
 12
0.0
 22
0.0
 32
0.0
 14
1.000000000000000E+20
 24
1.000000000000000E+20
 34
1.000000000000000E+20
 15
-1.000000000000000E+20
 25
-1.000000000000000E+20
 35
-1.000000000000000E+20
146
0.0
 13
0.0
 23
0.0
 33
0.0
 16
1.0
 26
0.0
 36
0.0
 17
0.0
 27
1.0
 37
0.0
 76
     0
330
4EB
  0
MLINESTYLE
  5
4E6
102
{ACAD_REACTORS
330
4E5
102
}
330
4E5
100
AcDbMlineStyle
  2
STANDARD
 70
     0
  3

 62
   256
 51
90.0
 52
90.0
 71
     2
 49
0.5
 62
   256
  6
BYLAYER
 49
-0.5
 62
   256
  6
BYLAYER
  0
ACDBPLACEHOLDER
  5
4DE
102
{ACAD_REACTORS
330
4DD
102
}
330
4DD
  0
XRECORD
  5
528
102
{ACAD_REACTORS
330
526
102
}
330
526
100
AcDbXrecord
280
     1
340
4EA
  0
XRECORD
  5
527
102
{ACAD_REACTORS
330
526
102
}
330
526
100
AcDbXrecord
280
     1
340
4E9
  0
DICTIONARYVAR
  5
523
102
{ACAD_REACTORS
330
522
102
}
330
522
100
DictionaryVariables
280
     0
  1
1
  0
DICTIONARYVAR
  5
524
102
{ACAD_REACTORS
330
522
102
}
330
522
100
DictionaryVariables
280
     0
  1

  0
DICTIONARY
  5
52B
330
4F2
100
AcDbDictionary
280
     1
281
     1
  3
ACAD_XREC_ROUNDTRIP
360
52C
  0
DICTIONARY
  5
529
330
4EE
100
AcDbDictionary
280
     1
281
     1
  3
ACAD_XREC_ROUNDTRIP
360
52A
  0
XRECORD
  5
52C
102
{ACAD_REACTORS
330
52B
102
}
330
52B
100
AcDbXrecord
280
     1
102
SHADEPLOT
 70
     0
102
SHADEPLOTRESLEVEL
 70
     2
102
SHADEPLOTCUSTOMDPI
 70
   300
  0
XRECORD
  5
52A
102
{ACAD_REACTORS
330
529
102
}
330
529
100
AcDbXrecord
280
     1
102
SHADEPLOT
 70
     0
102
SHADEPLOTRESLEVEL
 70
     2
102
SHADEPLOTCUSTOMDPI
 70
   300
  0
ENDSEC
  0
EOF
