  0
SECTION
  2
HEADER
  9
$ACADVER
  1
AC1015
  9
$ACADMAINTVER
 70
    20
  9
$DWGCODEPAGE
  3
ANSI_932
  9
$INSBASE
 10
129.0
 20
246.499214
 30
0.0
  9
$EXTMIN
 10
-0.0077968558852604
 20
-0.0055574980795541
 30
-0.0015258207003583
  9
$EXTMAX
 10
125.0081485414507
 20
113.0084402931886
 30
0.0000000349246037
  9
$LIMMIN
 10
-17.0
 20
0.0
  9
$LIMMAX
 10
140.0
 20
110.0
  9
$ORTHOMODE
 70
     1
  9
$REGENMODE
 70
     1
  9
$FILLMODE
 70
     1
  9
$QTEXTMODE
 70
     0
  9
$MIRRTEXT
 70
     1
  9
$LTSCALE
 40
1.0
  9
$ATTMODE
 70
     1
  9
$TEXTSIZE
 40
3.0
  9
$TRACEWID
 40
0.5
  9
$TEXTSTYLE
  7
STANDARD
  9
$CLAYER
  8
0
  9
$CELTYPE
  6
BYLAYER
  9
$CECOLOR
 62
   256
  9
$CELTSCALE
 40
1.0
  9
$DISPSILH
 70
     0
  9
$DIMSCALE
 40
1.0
  9
$DIMASZ
 40
2.0
  9
$DIMEXO
 40
2.0
  9
$DIMDLI
 40
8.0
  9
$DIMRND
 40
0.0
  9
$DIMDLE
 40
0.0
  9
$DIMEXE
 40
2.0
  9
$DIMTP
 40
0.0
  9
$DIMTM
 40
0.0
  9
$DIMTXT
 40
2.5
  9
$DIMCEN
 40
0.0
  9
$DIMTSZ
 40
0.0
  9
$DIMTOL
 70
     0
  9
$DIMLIM
 70
     0
  9
$DIMTIH
 70
     0
  9
$DIMTOH
 70
     0
  9
$DIMSE1
 70
     0
  9
$DIMSE2
 70
     0
  9
$DIMTAD
 70
     3
  9
$DIMZIN
 70
     0
  9
$DIMBLK
  1

  9
$DIMASO
 70
     1
  9
$DIMSHO
 70
     1
  9
$DIMPOST
  1

  9
$DIMAPOST
  1

  9
$DIMALT
 70
     0
  9
$DIMALTD
 70
     2
  9
$DIMALTF
 40
25.4
  9
$DIMLFAC
 40
1.0
  9
$DIMTOFL
 70
     1
  9
$DIMTVP
 40
0.0
  9
$DIMTIX
 70
     0
  9
$DIMSOXD
 70
     0
  9
$DIMSAH
 70
     1
  9
$DIMBLK1
  1
OPEN30
  9
$DIMBLK2
  1
OPEN30
  9
$DIMSTYLE
  2
STANDARD
  9
$DIMCLRD
 70
     0
  9
$DIMCLRE
 70
     0
  9
$DIMCLRT
 70
     0
  9
$DIMTFAC
 40
1.0
  9
$DIMGAP
 40
0.5
  9
$DIMJUST
 70
     0
  9
$DIMSD1
 70
     0
  9
$DIMSD2
 70
     0
  9
$DIMTOLJ
 70
     1
  9
$DIMTZIN
 70
     0
  9
$DIMALTZ
 70
     0
  9
$DIMALTTZ
 70
     0
  9
$DIMUPT
 70
     0
  9
$DIMDEC
 70
     4
  9
$DIMTDEC
 70
     4
  9
$DIMALTU
 70
     2
  9
$DIMALTTD
 70
     2
  9
$DIMTXSTY
  7
STANDARD
  9
$DIMAUNIT
 70
     0
  9
$DIMADEC
 70
     0
  9
$DIMALTRND
 40
0.0
  9
$DIMAZIN
 70
     0
  9
$DIMDSEP
 70
    46
  9
$DIMATFIT
 70
     3
  9
$DIMFRAC
 70
     0
  9
$DIMLDRBLK
  1
OPEN30
  9
$DIMLUNIT
 70
     2
  9
$DIMLWD
 70
    -2
  9
$DIMLWE
 70
    -2
  9
$DIMTMOVE
 70
     0
  9
$LUNITS
 70
     2
  9
$LUPREC
 70
     4
  9
$SKETCHINC
 40
0.1
  9
$FILLETRAD
 40
0.0
  9
$AUNITS
 70
     0
  9
$AUPREC
 70
     0
  9
$MENU
  1
ACAD
  9
$ELEVATION
 40
0.0
  9
$PELEVATION
 40
0.0
  9
$THICKNESS
 40
0.0
  9
$LIMCHECK
 70
     0
  9
$CHAMFERA
 40
0.0
  9
$CHAMFERB
 40
0.0
  9
$CHAMFERC
 40
0.0
  9
$CHAMFERD
 40
0.0
  9
$SKPOLY
 70
     0
  9
$TDCREATE
 40
2451815.565532581
  9
$TDUCREATE
 40
2451815.190532581
  9
$TDUPDATE
 40
2453731.595070162
  9
$TDUUPDATE
 40
2453731.220070162
  9
$TDINDWG
 40
0.5941231713
  9
$TDUSRTIMER
 40
0.5941231713
  9
$USRTIMER
 70
     1
  9
$ANGBASE
 50
0.0
  9
$ANGDIR
 70
     0
  9
$PDMODE
 70
     0
  9
$PDSIZE
 40
0.0
  9
$PLINEWID
 40
0.0
  9
$SPLFRAME
 70
     0
  9
$SPLINETYPE
 70
     6
  9
$SPLINESEGS
 70
     8
  9
$HANDSEED
  5
184
  9
$SURFTAB1
 70
     6
  9
$SURFTAB2
 70
     6
  9
$SURFTYPE
 70
     6
  9
$SURFU
 70
     6
  9
$SURFV
 70
     6
  9
$UCSBASE
  2

  9
$UCSNAME
  2

  9
$UCSORG
 10
0.0
 20
0.0
 30
0.0
  9
$UCSXDIR
 10
1.0
 20
0.0
 30
0.0
  9
$UCSYDIR
 10
0.0
 20
1.0
 30
0.0
  9
$UCSORTHOREF
  2

  9
$UCSORTHOVIEW
 70
     0
  9
$UCSORGTOP
 10
0.0
 20
0.0
 30
0.0
  9
$UCSORGBOTTOM
 10
0.0
 20
0.0
 30
0.0
  9
$UCSORGLEFT
 10
0.0
 20
0.0
 30
0.0
  9
$UCSORGRIGHT
 10
0.0
 20
0.0
 30
0.0
  9
$UCSORGFRONT
 10
0.0
 20
0.0
 30
0.0
  9
$UCSORGBACK
 10
0.0
 20
0.0
 30
0.0
  9
$PUCSBASE
  2

  9
$PUCSNAME
  2

  9
$PUCSORG
 10
0.0
 20
0.0
 30
0.0
  9
$PUCSXDIR
 10
1.0
 20
0.0
 30
0.0
  9
$PUCSYDIR
 10
0.0
 20
1.0
 30
0.0
  9
$PUCSORTHOREF
  2

  9
$PUCSORTHOVIEW
 70
     0
  9
$PUCSORGTOP
 10
0.0
 20
0.0
 30
0.0
  9
$PUCSORGBOTTOM
 10
0.0
 20
0.0
 30
0.0
  9
$PUCSORGLEFT
 10
0.0
 20
0.0
 30
0.0
  9
$PUCSORGRIGHT
 10
0.0
 20
0.0
 30
0.0
  9
$PUCSORGFRONT
 10
0.0
 20
0.0
 30
0.0
  9
$PUCSORGBACK
 10
0.0
 20
0.0
 30
0.0
  9
$USERI1
 70
     0
  9
$USERI2
 70
     0
  9
$USERI3
 70
     0
  9
$USERI4
 70
     0
  9
$USERI5
 70
     0
  9
$USERR1
 40
0.0
  9
$USERR2
 40
0.0
  9
$USERR3
 40
0.0
  9
$USERR4
 40
0.0
  9
$USERR5
 40
0.0
  9
$WORLDVIEW
 70
     1
  9
$SHADEDGE
 70
     3
  9
$SHADEDIF
 70
    70
  9
$TILEMODE
 70
     1
  9
$MAXACTVP
 70
    48
  9
$PINSBASE
 10
0.0
 20
0.0
 30
0.0
  9
$PLIMCHECK
 70
     0
  9
$PEXTMIN
 10
1.000000000000000E+20
 20
1.000000000000000E+20
 30
1.000000000000000E+20
  9
$PEXTMAX
 10
-1.000000000000000E+20
 20
-1.000000000000000E+20
 30
-1.000000000000000E+20
  9
$PLIMMIN
 10
0.0
 20
0.0
  9
$PLIMMAX
 10
12.0
 20
9.0
  9
$UNITMODE
 70
     0
  9
$VISRETAIN
 70
     1
  9
$PLINEGEN
 70
     0
  9
$PSLTSCALE
 70
     1
  9
$TREEDEPTH
 70
  3020
  9
$CMLSTYLE
  2
STANDARD
  9
$CMLJUST
 70
     0
  9
$CMLSCALE
 40
1.0
  9
$PROXYGRAPHICS
 70
     1
  9
$MEASUREMENT
 70
     0
  9
$CELWEIGHT
370
    -1
  9
$ENDCAPS
280
     0
  9
$JOINSTYLE
280
     0
  9
$LWDISPLAY
290
     0
  9
$INSUNITS
 70
     0
  9
$HYPERLINKBASE
  1

  9
$STYLESHEET
  1

  9
$XEDIT
290
     1
  9
$CEPSNTYPE
380
     0
  9
$PSTYLEMODE
290
     1
  9
$FINGERPRINTGUID
  2
{07BFC693-F889-4452-A9DD-63CF5D497C85}
  9
$VERSIONGUID
  2
{200B5262-9CC2-47A3-90B9-2CF1C7F8677E}
  9
$EXTNAMES
290
     1
  9
$PSVPSCALE
 40
0.0
  9
$OLESTARTUP
290
     0
  0
ENDSEC
  0
SECTION
  2
CLASSES
  0
CLASS
  1
ACDBDICTIONARYWDFLT
  2
AcDbDictionaryWithDefault
  3
ObjectDBX Classes
 90
        0
280
     1
281
     0
  0
CLASS
  1
ACDBPLACEHOLDER
  2
AcDbPlaceHolder
  3
ObjectDBX Classes
 90
        0
280
     0
281
     0
  0
CLASS
  1
LAYOUT
  2
AcDbLayout
  3
ObjectDBX Classes
 90
        0
280
     0
281
     0
  0
CLASS
  1
DICTIONARYVAR
  2
AcDbDictionaryVar
  3
ObjectDBX Classes
 90
        0
280
     0
281
     0
  0
ENDSEC
  0
SECTION
  2
TABLES
  0
TABLE
  2
VPORT
  5
19
330
0
100
AcDbSymbolTable
 70
     2
  0
VPORT
  5
17C
330
19
100
AcDbSymbolTableRecord
100
AcDbViewportTableRecord
  2
*Active
 70
     0
 10
0.0
 20
0.0
 11
1.0
 21
1.0
 12
62.50017584278271
 22
56.50144139755454
 13
0.0
 23
0.0
 14
1.0
 24
1.0
 15
0.0
 25
0.0
 16
0.0
 26
0.0
 36
1.0
 17
0.0
 27
0.0
 37
0.0
 40
113.9826892009076
 41
1.589413447782546
 42
50.0
 43
0.0
 44
0.0
 50
0.0
 51
0.0
 71
     0
 72
   100
 73
     1
 74
     0
 75
     0
 76
     0
 77
     0
 78
     0
281
     0
 65
     1
110
0.0
120
0.0
130
0.0
111
1.0
121
0.0
131
0.0
112
0.0
122
1.0
132
0.0
 79
     0
146
0.0
  0
ENDTAB
  0
TABLE
  2
LTYPE
  5
14
330
0
100
AcDbSymbolTable
 70
     2
  0
LTYPE
  5
15
330
14
100
AcDbSymbolTableRecord
100
AcDbLinetypeTableRecord
  2
BYBLOCK
 70
     0
  3

 72
    65
 73
     0
 40
0.0
  0
LTYPE
  5
16
330
14
100
AcDbSymbolTableRecord
100
AcDbLinetypeTableRecord
  2
BYLAYER
 70
     0
  3

 72
    65
 73
     0
 40
0.0
  0
LTYPE
  5
7
330
14
100
AcDbSymbolTableRecord
100
AcDbLinetypeTableRecord
  2
CONTINUOUS
 70
     0
  3
Solid line
 72
    65
 73
     0
 40
0.0
  0
LTYPE
  5
9F
330
14
100
AcDbSymbolTableRecord
100
AcDbLinetypeTableRecord
  2
PHANTOM
 70
     0
  3
Phantom ______  __  __  ______  __  __  ______
 72
    65
 73
     6
 40
63.5
 49
31.75
 74
     0
 49
-6.349999999999999
 74
     0
 49
6.349999999999999
 74
     0
 49
-6.349999999999999
 74
     0
 49
6.349999999999999
 74
     0
 49
-6.349999999999999
 74
     0
  0
ENDTAB
  0
TABLE
  2
LAYER
  5
E
102
{ACAD_XDICTIONARY
360
F
102
}
330
0
100
AcDbSymbolTable
 70
     7
  0
LAYER
  5
6
330
E
100
AcDbSymbolTableRecord
100
AcDbLayerTableRecord
  2
0
 70
     0
 62
     7
  6
CONTINUOUS
370
    -3
390
16A
  0
LAYER
  5
41
330
E
100
AcDbSymbolTableRecord
100
AcDbLayerTableRecord
  2
DEFPOINTS
 70
     0
 62
     7
  6
CONTINUOUS
290
     0
370
    -3
390
16A
  0
LAYER
  5
119
330
E
100
AcDbSymbolTableRecord
100
AcDbLayerTableRecord
  2
WAKU
 70
     0
 62
     4
  6
CONTINUOUS
370
    -3
390
16A
  0
LAYER
  5
2A
330
E
100
AcDbSymbolTableRecord
100
AcDbLayerTableRecord
  2
MOJI1
 70
     0
 62
     2
  6
CONTINUOUS
370
    -3
390
16A
  0
LAYER
  5
2C
330
E
100
AcDbSymbolTableRecord
100
AcDbLayerTableRecord
  2
GAIKEI
 70
     0
 62
     7
  6
CONTINUOUS
370
    -3
390
16A
  0
LAYER
  5
24
330
E
100
AcDbSymbolTableRecord
100
AcDbLayerTableRecord
  2
SUNPO
 70
     0
 62
     3
  6
CONTINUOUS
370
    -3
390
16A
  0
LAYER
  5
113
330
E
100
AcDbSymbolTableRecord
100
AcDbLayerTableRecord
  2
TOUROKU
 70
     0
 62
     1
  6
CONTINUOUS
370
    -3
390
16A
  0
ENDTAB
  0
TABLE
  2
STYLE
  5
12
330
0
100
AcDbSymbolTable
 70
     1
  0
STYLE
  5
13
330
12
100
AcDbSymbolTableRecord
100
AcDbTextStyleTableRecord
  2
STANDARD
 70
     0
 40
0.0
 41
1.0
 50
0.0
 71
     0
 42
3.0
  3
MONOTXT.shx
  4
BIGFONT.shx
  0
ENDTAB
  0
TABLE
  2
VIEW
  5
17
330
0
100
AcDbSymbolTable
 70
     0
  0
ENDTAB
  0
TABLE
  2
UCS
  5
18
330
0
100
AcDbSymbolTable
 70
     0
  0
ENDTAB
  0
TABLE
  2
APPID
  5
1B
330
0
100
AcDbSymbolTable
 70
     1
  0
APPID
  5
1C
330
1B
100
AcDbSymbolTableRecord
100
AcDbRegAppTableRecord
  2
ACAD
 70
     0
  0
ENDTAB
  0
TABLE
  2
DIMSTYLE
  5
1D
330
0
100
AcDbSymbolTable
 70
     1
100
AcDbDimStyleTable
 71
     0
  0
DIMSTYLE
105
26
330
1D
100
AcDbSymbolTableRecord
100
AcDbDimStyleTableRecord
  2
STANDARD
 70
     0
 40
0.0
 41
2.0
 42
2.0
 43
8.0
 44
2.0
 73
     0
 74
     0
 77
     3
140
3.0
141
0.0
173
     1
288
     1
340
13
341
38
343
38
344
38
  0
ENDTAB
  0
TABLE
  2
BLOCK_RECORD
  5
1
330
0
100
AcDbSymbolTable
 70
     4
  0
BLOCK_RECORD
  5
2
102
{ACAD_XDICTIONARY
360
3
102
}
330
1
100
AcDbSymbolTableRecord
100
AcDbBlockTableRecord
  2
*MODEL_SPACE
340
16F
  0
BLOCK_RECORD
  5
9
102
{ACAD_XDICTIONARY
360
A
102
}
330
1
100
AcDbSymbolTableRecord
100
AcDbBlockTableRecord
  2
*PAPER_SPACE
340
170
  0
BLOCK_RECORD
  5
38
330
1
100
AcDbSymbolTableRecord
100
AcDbBlockTableRecord
  2
_OPEN30
340
0
102
{BLKREFS
331
37
331
3E
331
AB
331
AC
331
C7
331
C8
102
}
  0
ENDTAB
  0
ENDSEC
  0
SECTION
  2
BLOCKS
  0
BLOCK
  5
5
330
2
100
AcDbEntity
  8
0
100
AcDbBlockBegin
  2
*MODEL_SPACE
 70
     0
 10
0.0
 20
0.0
 30
0.0
  3
*MODEL_SPACE
  1

  0
ENDBLK
  5
8
330
2
100
AcDbEntity
  8
0
100
AcDbBlockEnd
  0
BLOCK
  5
C
330
9
100
AcDbEntity
 67
     1
  8
0
100
AcDbBlockBegin
  2
*PAPER_SPACE
 70
     0
 10
0.0
 20
0.0
 30
0.0
  3
*PAPER_SPACE
  1

  0
ENDBLK
  5
D
330
9
100
AcDbEntity
 67
     1
  8
0
100
AcDbBlockEnd
  0
BLOCK
  5
3C
330
38
100
AcDbEntity
  8
0
100
AcDbBlockBegin
  2
_OPEN30
 70
     0
 10
0.0
 20
0.0
 30
0.0
  3
_OPEN30
  1

  0
LINE
  5
39
330
38
100
AcDbEntity
  8
0
  6
ByBlock
 62
     0
100
AcDbLine
 10
-1.0
 20
0.267949
 30
0.0
 11
0.0
 21
0.0
 31
0.0
  0
LINE
  5
3A
330
38
100
AcDbEntity
  8
0
  6
ByBlock
 62
     0
100
AcDbLine
 10
0.0
 20
0.0
 30
0.0
 11
-1.0
 21
-0.267949
 31
0.0
  0
LINE
  5
3B
330
38
100
AcDbEntity
  8
0
  6
ByBlock
 62
     0
100
AcDbLine
 10
0.0
 20
0.0
 30
0.0
 11
-1.0
 21
0.0
 31
0.0
  0
ENDBLK
  5
3D
330
38
100
AcDbEntity
  8
0
100
AcDbBlockEnd
  0
ENDSEC
  0
SECTION
  2
ENTITIES
  0
TEXT
  5
29
330
2
100
AcDbEntity
  8
MOJI1
100
AcDbText
 10
27.0
 20
109.0
 30
0.0
 40
4.0
  1
プログレッシブワイドプラズマディスプレイ
100
AcDbText
  0
LINE
  5
2B
330
2
100
AcDbEntity
  8
GAIKEI
100
AcDbLine
 10
95.79656999999999
 20
62.04937499999999
 30
0.0
 11
95.79656999999999
 21
66.31129900000001
 31
0.0
  0
LINE
  5
2D
330
2
100
AcDbEntity
  8
GAIKEI
 62
     1
100
AcDbLine
 10
23.574084
 20
82.363326
 30
0.0
 11
23.574084
 21
59.31332600000001
 31
0.0
  0
LINE
  5
2E
330
2
100
AcDbEntity
  8
GAIKEI
 62
     1
100
AcDbLine
 10
22.524084
 20
58.736299
 30
0.0
 11
22.524084
 21
82.936299
 31
0.0
  0
LINE
  5
2F
330
2
100
AcDbEntity
  8
GAIKEI
100
AcDbLine
 10
22.403084
 20
83.05731999999999
 30
0.0
 11
22.403084
 21
58.615279
 31
0.0
  0
LINE
  5
30
330
2
100
AcDbEntity
  8
GAIKEI
100
AcDbLine
 10
21.024125
 20
84.390353
 30
0.0
 11
21.024084
 21
57.286299
 31
0.0
  0
LINE
  5
31
330
2
100
AcDbEntity
  8
GAIKEI
 62
     1
100
AcDbLine
 10
21.139384
 20
84.27100199999999
 30
0.0
 11
21.139384
 21
57.401596
 31
0.0
  0
LINE
  5
48
330
2
100
AcDbEntity
  8
GAIKEI
 62
     1
100
AcDbLine
 10
65.524084
 20
58.736299
 30
0.0
 11
65.524084
 21
82.936299
 31
0.0
  0
LINE
  5
49
330
2
100
AcDbEntity
  8
GAIKEI
 62
     1
100
AcDbLine
 10
66.90878399999999
 20
84.27100199999999
 30
0.0
 11
66.90878399999999
 21
57.401596
 31
0.0
  0
LINE
  5
4A
330
2
100
AcDbEntity
  8
GAIKEI
100
AcDbLine
 10
65.64510899999999
 20
83.05731999999999
 30
0.0
 11
65.64510899999999
 21
58.615279
 31
0.0
  0
LINE
  5
4B
330
2
100
AcDbEntity
  8
GAIKEI
100
AcDbLine
 10
67.02404300000001
 20
84.390353
 30
0.0
 11
67.024084
 21
57.286299
 31
0.0
  0
LINE
  5
4C
330
2
100
AcDbEntity
  8
GAIKEI
 62
     1
100
AcDbLine
 10
64.47408399999999
 20
82.363326
 30
0.0
 11
64.47408399999999
 21
59.31332600000001
 31
0.0
  0
LINE
  5
4D
330
2
100
AcDbEntity
  8
GAIKEI
 62
     1
100
AcDbLine
 10
95.42156999999999
 20
61.87450899999999
 30
0.0
 11
95.42156999999999
 21
77.010191
 31
0.0
  0
LINE
  5
4E
330
2
100
AcDbEntity
  8
GAIKEI
100
AcDbLine
 10
91.37157
 20
57.249045
 30
0.0
 11
91.37157
 21
84.42355400000002
 31
0.0
  0
LINE
  5
4F
330
2
100
AcDbEntity
  8
GAIKEI
100
AcDbLine
 10
93.57156999999999
 20
57.086299
 30
0.0
 11
93.57156999999999
 21
84.586299
 31
0.0
  0
LINE
  5
50
330
2
100
AcDbEntity
  8
GAIKEI
 62
     1
100
AcDbLine
 10
23.574084
 20
59.31332600000001
 30
0.0
 11
64.47408399999999
 21
59.31332600000001
 31
0.0
  0
LINE
  5
51
330
2
100
AcDbEntity
  8
GAIKEI
 62
     1
100
AcDbLine
 10
66.70878399999999
 20
57.20159599999999
 30
0.0
 11
22.710609
 21
57.20159599999999
 31
0.0
  0
LINE
  5
52
330
2
100
AcDbEntity
  8
GAIKEI
 62
     1
100
AcDbLine
 10
22.674084
 20
58.586299
 30
0.0
 11
65.374084
 21
58.586299
 31
0.0
  0
LINE
  5
53
330
2
100
AcDbEntity
  8
GAIKEI
100
AcDbLine
 10
21.224084
 20
57.086299
 30
0.0
 11
66.82408399999999
 21
57.086299
 31
0.0
  0
LINE
  5
54
330
2
100
AcDbEntity
  8
GAIKEI
100
AcDbLine
 10
65.495109
 20
58.465279
 30
0.0
 11
22.553084
 21
58.465279
 31
0.0
  0
LINE
  5
55
330
2
100
AcDbEntity
  8
GAIKEI
 62
     1
100
AcDbLine
 10
24.752834
 20
57.538799
 30
0.0
 11
24.752834
 21
57.963799
 31
0.0
  0
ARC
  5
56
330
2
100
AcDbEntity
  8
GAIKEI
 62
     1
100
AcDbCircle
 10
21.542584
 20
57.85629899999999
 30
0.0
 40
0.08
100
AcDbArc
 50
90.0
 51
180.0
  0
ARC
  5
57
330
2
100
AcDbEntity
  8
GAIKEI
 62
     1
100
AcDbCircle
 10
22.605609
 20
57.85629899999999
 30
0.0
 40
0.08
100
AcDbArc
 50
0.0
 51
90.0
  0
LINE
  5
58
330
2
100
AcDbEntity
  8
GAIKEI
 62
     1
100
AcDbLine
 10
25.595334
 20
57.538799
 30
0.0
 11
25.595334
 21
57.963799
 31
0.0
  0
CIRCLE
  5
59
330
2
100
AcDbEntity
  8
GAIKEI
 62
     1
100
AcDbCircle
 10
23.549084
 20
57.776299
 30
0.0
 40
0.075
  0
LINE
  5
5A
330
2
100
AcDbEntity
  8
GAIKEI
 62
     1
100
AcDbLine
 10
22.666384
 20
57.267669
 30
0.0
 11
22.685609
 21
57.29649300000001
 31
0.0
  0
LINE
  5
5B
330
2
100
AcDbEntity
  8
GAIKEI
 62
     1
100
AcDbLine
 10
22.666384
 20
57.267669
 30
0.0
 11
21.481784
 21
57.267669
 31
0.0
  0
LINE
  5
5C
330
2
100
AcDbEntity
  8
GAIKEI
 62
     1
100
AcDbLine
 10
22.666384
 20
57.192531
 30
0.0
 11
22.666384
 21
57.267669
 31
0.0
  0
LINE
  5
5D
330
2
100
AcDbEntity
  8
GAIKEI
 62
     1
100
AcDbLine
 10
22.691384
 20
57.167531
 30
0.0
 11
21.456784
 21
57.167531
 31
0.0
  0
LINE
  5
5E
330
2
100
AcDbEntity
  8
GAIKEI
 62
     1
100
AcDbLine
 10
21.481784
 20
57.192531
 30
0.0
 11
21.481784
 21
57.267669
 31
0.0
  0
LINE
  5
5F
330
2
100
AcDbEntity
  8
GAIKEI
 62
     1
100
AcDbLine
 10
21.481784
 20
57.267669
 30
0.0
 11
21.462584
 21
57.29649300000001
 31
0.0
  0
LINE
  5
60
330
2
100
AcDbEntity
  8
GAIKEI
 62
     1
100
AcDbLine
 10
21.462584
 20
57.226596
 30
0.0
 11
21.462584
 21
57.85629899999999
 31
0.0
  0
LINE
  5
61
330
2
100
AcDbEntity
  8
GAIKEI
 62
     1
100
AcDbLine
 10
22.685609
 20
57.226596
 30
0.0
 11
22.685609
 21
57.85629899999999
 31
0.0
  0
LINE
  5
62
330
2
100
AcDbEntity
  8
GAIKEI
 62
     1
100
AcDbLine
 10
21.437584
 20
57.20159599999999
 30
0.0
 11
21.339384
 21
57.20159599999999
 31
0.0
  0
ARC
  5
63
330
2
100
AcDbEntity
  8
GAIKEI
 62
     1
100
AcDbCircle
 10
22.691384
 20
57.192531
 30
0.0
 40
0.025
100
AcDbArc
 50
180.0
 51
270.0
  0
ARC
  5
64
330
2
100
AcDbEntity
  8
GAIKEI
 62
     1
100
AcDbCircle
 10
22.710609
 20
57.226596
 30
0.0
 40
0.025
100
AcDbArc
 50
180.0
 51
270.0
  0
ARC
  5
65
330
2
100
AcDbEntity
  8
GAIKEI
 62
     1
100
AcDbCircle
 10
21.456784
 20
57.192531
 30
0.0
 40
0.025
100
AcDbArc
 50
270.0
 51
0.0
  0
ARC
  5
66
330
2
100
AcDbEntity
  8
GAIKEI
 62
     1
100
AcDbCircle
 10
21.437584
 20
57.226596
 30
0.0
 40
0.025
100
AcDbArc
 50
270.0
 51
0.0
  0
ARC
  5
67
330
2
100
AcDbEntity
  8
GAIKEI
100
AcDbCircle
 10
21.224084
 20
57.286299
 30
0.0
 40
0.2
100
AcDbArc
 50
180.0
 51
270.0
  0
ARC
  5
68
330
2
100
AcDbEntity
  8
GAIKEI
 62
     1
100
AcDbCircle
 10
21.339384
 20
57.401596
 30
0.0
 40
0.2
100
AcDbArc
 50
180.0
 51
270.0
  0
LINE
  5
69
330
2
100
AcDbEntity
  8
GAIKEI
 62
     1
100
AcDbLine
 10
28.116713
 20
57.901299
 30
0.0
 11
28.416713
 21
57.901299
 31
0.0
  0
LINE
  5
6A
330
2
100
AcDbEntity
  8
GAIKEI
 62
     1
100
AcDbLine
 10
28.416713
 20
57.901299
 30
0.0
 11
28.416713
 21
57.60129899999999
 31
0.0
  0
LINE
  5
6B
330
2
100
AcDbEntity
  8
GAIKEI
 62
     1
100
AcDbLine
 10
28.416713
 20
57.60129899999999
 30
0.0
 11
28.116713
 21
57.60129899999999
 31
0.0
  0
LINE
  5
6C
330
2
100
AcDbEntity
  8
GAIKEI
 62
     1
100
AcDbLine
 10
28.116713
 20
57.60129899999999
 30
0.0
 11
28.116713
 21
57.901299
 31
0.0
  0
LINE
  5
6D
330
2
100
AcDbEntity
  8
GAIKEI
 62
     1
100
AcDbLine
 10
28.567266
 20
57.60129899999999
 30
0.0
 11
28.567266
 21
57.901299
 31
0.0
  0
LINE
  5
6E
330
2
100
AcDbEntity
  8
GAIKEI
 62
     1
100
AcDbLine
 10
28.867266
 20
57.60129899999999
 30
0.0
 11
28.567266
 21
57.60129899999999
 31
0.0
  0
LINE
  5
6F
330
2
100
AcDbEntity
  8
GAIKEI
 62
     1
100
AcDbLine
 10
28.867266
 20
57.901299
 30
0.0
 11
28.867266
 21
57.60129899999999
 31
0.0
  0
LINE
  5
70
330
2
100
AcDbEntity
  8
GAIKEI
 62
     1
100
AcDbLine
 10
28.567266
 20
57.901299
 30
0.0
 11
28.867266
 21
57.901299
 31
0.0
  0
LINE
  5
71
330
2
100
AcDbEntity
  8
GAIKEI
 62
     1
100
AcDbLine
 10
24.777834
 20
57.51379899999999
 30
0.0
 11
25.570334
 21
57.51379899999999
 31
0.0
  0
ARC
  5
72
330
2
100
AcDbEntity
  8
GAIKEI
 62
     1
100
AcDbCircle
 10
24.777834
 20
57.538799
 30
0.0
 40
0.025
100
AcDbArc
 50
180.0
 51
270.0
  0
LINE
  5
73
330
2
100
AcDbEntity
  8
GAIKEI
 62
     1
100
AcDbLine
 10
27.66616
 20
57.901299
 30
0.0
 11
27.96616
 21
57.901299
 31
0.0
  0
LINE
  5
74
330
2
100
AcDbEntity
  8
GAIKEI
 62
     1
100
AcDbLine
 10
27.96616
 20
57.901299
 30
0.0
 11
27.96616
 21
57.60129899999999
 31
0.0
  0
LINE
  5
75
330
2
100
AcDbEntity
  8
GAIKEI
 62
     1
100
AcDbLine
 10
27.96616
 20
57.60129899999999
 30
0.0
 11
27.66616
 21
57.60129899999999
 31
0.0
  0
LINE
  5
76
330
2
100
AcDbEntity
  8
GAIKEI
 62
     1
100
AcDbLine
 10
27.66616
 20
57.60129899999999
 30
0.0
 11
27.66616
 21
57.901299
 31
0.0
  0
LINE
  5
77
330
2
100
AcDbEntity
  8
GAIKEI
 62
     1
100
AcDbLine
 10
27.21560800000001
 20
57.60129899999999
 30
0.0
 11
27.21560800000001
 21
57.901299
 31
0.0
  0
LINE
  5
78
330
2
100
AcDbEntity
  8
GAIKEI
 62
     1
100
AcDbLine
 10
27.515608
 20
57.60129899999999
 30
0.0
 11
27.21560800000001
 21
57.60129899999999
 31
0.0
  0
LINE
  5
79
330
2
100
AcDbEntity
  8
GAIKEI
 62
     1
100
AcDbLine
 10
27.515608
 20
57.901299
 30
0.0
 11
27.515608
 21
57.60129899999999
 31
0.0
  0
LINE
  5
7A
330
2
100
AcDbEntity
  8
GAIKEI
 62
     1
100
AcDbLine
 10
27.21560800000001
 20
57.901299
 30
0.0
 11
27.515608
 21
57.901299
 31
0.0
  0
LINE
  5
7B
330
2
100
AcDbEntity
  8
GAIKEI
 62
     1
100
AcDbLine
 10
26.765055
 20
57.901299
 30
0.0
 11
27.065055
 21
57.901299
 31
0.0
  0
LINE
  5
7C
330
2
100
AcDbEntity
  8
GAIKEI
 62
     1
100
AcDbLine
 10
27.065055
 20
57.901299
 30
0.0
 11
27.065055
 21
57.60129899999999
 31
0.0
  0
LINE
  5
7D
330
2
100
AcDbEntity
  8
GAIKEI
 62
     1
100
AcDbLine
 10
27.065055
 20
57.60129899999999
 30
0.0
 11
26.765055
 21
57.60129899999999
 31
0.0
  0
LINE
  5
7E
330
2
100
AcDbEntity
  8
GAIKEI
 62
     1
100
AcDbLine
 10
26.765055
 20
57.60129899999999
 30
0.0
 11
26.765055
 21
57.901299
 31
0.0
  0
LINE
  5
7F
330
2
100
AcDbEntity
  8
GAIKEI
 62
     1
100
AcDbLine
 10
25.764272
 20
57.667299
 30
0.0
 11
25.764272
 21
57.835299
 31
0.0
  0
LINE
  5
80
330
2
100
AcDbEntity
  8
GAIKEI
 62
     1
100
AcDbLine
 10
25.932272
 20
57.667299
 30
0.0
 11
25.764272
 21
57.667299
 31
0.0
  0
LINE
  5
81
330
2
100
AcDbEntity
  8
GAIKEI
 62
     1
100
AcDbLine
 10
25.932272
 20
57.835299
 30
0.0
 11
25.932272
 21
57.667299
 31
0.0
  0
LINE
  5
82
330
2
100
AcDbEntity
  8
GAIKEI
 62
     1
100
AcDbLine
 10
25.764272
 20
57.835299
 30
0.0
 11
25.932272
 21
57.835299
 31
0.0
  0
ARC
  5
83
330
2
100
AcDbEntity
  8
GAIKEI
 62
     1
100
AcDbCircle
 10
25.570334
 20
57.538799
 30
0.0
 40
0.025
100
AcDbArc
 50
270.0
 51
0.0
  0
ARC
  5
84
330
2
100
AcDbEntity
  8
GAIKEI
 62
     1
100
AcDbCircle
 10
22.674084
 20
58.736299
 30
0.0
 40
0.15
100
AcDbArc
 50
180.0
 51
270.0
  0
LINE
  5
85
330
2
100
AcDbEntity
  8
GAIKEI
 62
     1
100
AcDbLine
 10
22.605609
 20
57.93629899999999
 30
0.0
 11
21.542584
 21
57.93629899999999
 31
0.0
  0
ARC
  5
86
330
2
100
AcDbEntity
  8
GAIKEI
100
AcDbCircle
 10
22.553084
 20
58.615279
 30
0.0
 40
0.15
100
AcDbArc
 50
180.0
 51
270.0
  0
LINE
  5
87
330
2
100
AcDbEntity
  8
GAIKEI
 62
     1
100
AcDbLine
 10
24.777834
 20
57.988799
 30
0.0
 11
25.570334
 21
57.988799
 31
0.0
  0
ARC
  5
88
330
2
100
AcDbEntity
  8
GAIKEI
 62
     1
100
AcDbCircle
 10
24.777834
 20
57.963799
 30
0.0
 40
0.025
100
AcDbArc
 50
90.0
 51
180.0
  0
ARC
  5
89
330
2
100
AcDbEntity
  8
GAIKEI
 62
     1
100
AcDbCircle
 10
25.570334
 20
57.963799
 30
0.0
 40
0.025
100
AcDbArc
 50
0.0
 51
90.0
  0
ARC
  5
8A
330
2
100
AcDbEntity
  8
GAIKEI
 62
     1
100
AcDbCircle
 10
66.70878399999999
 20
57.401596
 30
0.0
 40
0.2
100
AcDbArc
 50
270.0
 51
0.0
  0
ARC
  5
8B
330
2
100
AcDbEntity
  8
GAIKEI
100
AcDbCircle
 10
66.82408399999999
 20
57.286299
 30
0.0
 40
0.2
100
AcDbArc
 50
270.0
 51
0.0
  0
ARC
  5
8C
330
2
100
AcDbEntity
  8
GAIKEI
100
AcDbCircle
 10
65.495109
 20
58.615279
 30
0.0
 40
0.15
100
AcDbArc
 50
270.0
 51
0.0
  0
ARC
  5
8D
330
2
100
AcDbEntity
  8
GAIKEI
 62
     1
100
AcDbCircle
 10
65.374084
 20
58.736299
 30
0.0
 40
0.15
100
AcDbArc
 50
270.0
 51
0.0
  0
LINE
  5
8E
330
2
100
AcDbEntity
  8
GAIKEI
100
AcDbLine
 10
93.57156999999999
 20
57.086299
 30
0.0
 11
91.41895500000002
 21
57.19911299999999
 31
0.0
  0
ARC
  5
8F
330
2
100
AcDbEntity
  8
GAIKEI
100
AcDbCircle
 10
91.42156999999999
 20
57.249045
 30
0.0
 40
0.05
100
AcDbArc
 50
180.0
 51
267.0
  0
LINE
  5
90
330
2
100
AcDbEntity
  8
GAIKEI
100
AcDbLine
 10
91.37868299999999
 20
57.223343
 30
0.0
 11
91.35723799999999
 21
57.210492
 31
0.0
  0
LINE
  5
91
330
2
100
AcDbEntity
  8
GAIKEI
100
AcDbLine
 10
93.57156999999999
 20
57.086299
 30
0.0
 11
93.57156999999999
 21
57.128975
 31
0.0
  0
ARC
  5
92
330
2
100
AcDbEntity
  8
GAIKEI
100
AcDbCircle
 10
95.54656999999998
 20
62.04937499999999
 30
0.0
 40
0.25
100
AcDbArc
 50
295.0
 51
0.0
  0
ARC
  5
93
330
2
100
AcDbEntity
  8
GAIKEI
 62
     1
100
AcDbCircle
 10
95.64657
 20
60.71058
 30
0.0
 40
0.15
100
AcDbArc
 50
282.1946200000001
 51
0.0
  0
ARC
  5
94
330
2
100
AcDbEntity
  8
GAIKEI
100
AcDbCircle
 10
95.54656999999998
 20
58.59395799999999
 30
0.0
 40
0.25
100
AcDbArc
 50
273.0
 51
0.0
  0
LINE
  5
95
330
2
100
AcDbEntity
  8
GAIKEI
 62
     1
100
AcDbLine
 10
95.52156999999999
 20
61.698165
 30
0.0
 11
95.52156999999999
 21
58.57954599999999
 31
0.0
  0
LINE
  5
96
330
2
100
AcDbEntity
  8
GAIKEI
100
AcDbLine
 10
95.79656999999999
 20
58.59395799999999
 30
0.0
 11
95.79656999999999
 21
62.054375
 31
0.0
  0
LINE
  5
97
330
2
100
AcDbEntity
  8
GAIKEI
100
AcDbLine
 10
94.79656999999999
 20
58.54155
 30
0.0
 11
94.79656999999999
 21
61.105264
 31
0.0
  0
ARC
  5
98
330
2
100
AcDbEntity
  8
GAIKEI
100
AcDbCircle
 10
95.29656999999998
 20
61.105264
 30
0.0
 40
0.5
100
AcDbArc
 50
115.0
 51
180.0
  0
ARC
  5
99
330
2
100
AcDbEntity
  8
GAIKEI
 62
     1
100
AcDbCircle
 10
95.62156999999999
 20
61.698165
 30
0.0
 40
0.1
100
AcDbArc
 50
115.0
 51
180.0
  0
LINE
  5
9A
330
2
100
AcDbEntity
  8
GAIKEI
100
AcDbLine
 10
95.57930999999999
 20
61.788796
 30
0.0
 11
95.08526299999999
 21
61.55841800000001
 31
0.0
  0
ARC
  5
9B
330
2
100
AcDbEntity
  8
GAIKEI
 62
     1
100
AcDbCircle
 10
95.17156999999999
 20
61.87450899999999
 30
0.0
 40
0.25
100
AcDbArc
 50
295.0
 51
0.0
  0
LINE
  5
9C
330
2
100
AcDbEntity
  8
GAIKEI
100
AcDbLine
 10
95.652225
 20
61.82279799999999
 30
0.0
 11
95.57930999999999
 21
61.788796
 31
0.0
  0
ARC
  5
9D
330
2
100
AcDbEntity
  8
GAIKEI
 62
     1
100
AcDbCircle
 10
94.59615500000001
 20
60.461299
 30
0.0
 40
0.380417
100
AcDbArc
 50
301.791831
 51
58.20816899999999
  0
LINE
  5
9E
330
2
100
AcDbEntity
  8
GAIKEI
  6
PHANTOM
 62
     1
100
AcDbLine
 10
95.52156999999999
 20
61.025006
 30
0.0
 11
95.52156999999999
 21
60.961299
 31
0.0
  0
LINE
  5
A0
330
2
100
AcDbEntity
  8
GAIKEI
 62
     1
100
AcDbLine
 10
95.67825500000001
 20
60.563965
 30
0.0
 11
95.63988499999998
 21
60.55567299999999
 31
0.0
  0
ARC
  5
A1
330
2
100
AcDbEntity
  8
GAIKEI
 62
     1
100
AcDbCircle
 10
95.67156999999999
 20
60.40905799999999
 30
0.0
 40
0.15
100
AcDbArc
 50
102.19462
 51
180.0
  0
ARC
  5
A2
330
2
100
AcDbEntity
  8
GAIKEI
 62
     1
100
AcDbCircle
 10
95.27157
 20
58.57954599999999
 30
0.0
 40
0.25
100
AcDbArc
 50
273.0
 51
0.0
  0
ARC
  5
A3
330
2
100
AcDbEntity
  8
GAIKEI
100
AcDbCircle
 10
94.54656999999999
 20
58.54155
 30
0.0
 40
0.25
100
AcDbArc
 50
273.0
 51
0.0
  0
ARC
  5
A4
330
2
100
AcDbEntity
  8
GAIKEI
100
AcDbCircle
 10
93.79656999999999
 20
58.00155799999999
 30
0.0
 40
0.25
100
AcDbArc
 50
93.0
 51
154.158067
  0
LINE
  5
A5
330
2
100
AcDbEntity
  8
GAIKEI
100
AcDbLine
 10
95.55965500000001
 20
58.344301
 30
0.0
 11
93.78348800000001
 21
58.25121600000001
 31
0.0
  0
LINE
  5
B3
330
2
100
AcDbEntity
  8
GAIKEI
 62
     1
100
AcDbLine
 10
23.574084
 20
82.363326
 30
0.0
 11
64.47408399999999
 21
82.363326
 31
0.0
  0
LINE
  5
B4
330
2
100
AcDbEntity
  8
GAIKEI
 62
     1
100
AcDbLine
 10
66.70878399999999
 20
84.47100199999999
 30
0.0
 11
21.339384
 21
84.47100199999999
 31
0.0
  0
LINE
  5
B5
330
2
100
AcDbEntity
  8
GAIKEI
100
AcDbLine
 10
21.224084
 20
84.586299
 30
0.0
 11
66.82408399999999
 21
84.586299
 31
0.0
  0
LINE
  5
B6
330
2
100
AcDbEntity
  8
GAIKEI
 62
     1
100
AcDbLine
 10
22.674084
 20
83.08629899999999
 30
0.0
 11
65.374084
 21
83.08629899999999
 31
0.0
  0
LINE
  5
B7
330
2
100
AcDbEntity
  8
GAIKEI
100
AcDbLine
 10
65.495109
 20
83.20731999999999
 30
0.0
 11
22.553084
 21
83.20731999999999
 31
0.0
  0
ARC
  5
B8
330
2
100
AcDbEntity
  8
GAIKEI
 62
     1
100
AcDbCircle
 10
22.674084
 20
82.936299
 30
0.0
 40
0.15
100
AcDbArc
 50
90.0
 51
180.0
  0
ARC
  5
B9
330
2
100
AcDbEntity
  8
GAIKEI
100
AcDbCircle
 10
22.553084
 20
83.05731999999999
 30
0.0
 40
0.15
100
AcDbArc
 50
90.0
 51
180.0
  0
ARC
  5
BA
330
2
100
AcDbEntity
  8
GAIKEI
100
AcDbCircle
 10
21.224084
 20
84.386299
 30
0.0
 40
0.2
100
AcDbArc
 50
90.0
 51
178.838702
  0
ARC
  5
BB
330
2
100
AcDbEntity
  8
GAIKEI
 62
     1
100
AcDbCircle
 10
21.339384
 20
84.27100199999999
 30
0.0
 40
0.2
100
AcDbArc
 50
90.0
 51
180.0
  0
ARC
  5
BC
330
2
100
AcDbEntity
  8
GAIKEI
100
AcDbCircle
 10
65.495109
 20
83.05731999999999
 30
0.0
 40
0.15
100
AcDbArc
 50
0.0
 51
90.0
  0
ARC
  5
BD
330
2
100
AcDbEntity
  8
GAIKEI
 62
     1
100
AcDbCircle
 10
65.374084
 20
82.936299
 30
0.0
 40
0.15
100
AcDbArc
 50
0.0
 51
90.0
  0
ARC
  5
BE
330
2
100
AcDbEntity
  8
GAIKEI
 62
     1
100
AcDbCircle
 10
66.70878399999999
 20
84.27100199999999
 30
0.0
 40
0.2
100
AcDbArc
 50
0.0
 51
90.0
  0
ARC
  5
BF
330
2
100
AcDbEntity
  8
GAIKEI
100
AcDbCircle
 10
66.82408399999999
 20
84.386299
 30
0.0
 40
0.2
100
AcDbArc
 50
1.161297999999999
 51
90.0
  0
LINE
  5
CF
330
2
100
AcDbEntity
  8
GAIKEI
 62
     1
100
AcDbLine
 10
95.33133300000001
 20
80.50594399999999
 30
0.0
 11
95.04822299999998
 21
82.564554
 31
0.0
  0
LINE
  5
D0
330
2
100
AcDbEntity
  8
GAIKEI
 62
     1
100
AcDbLine
 10
95.279818
 20
80.49885899999999
 30
0.0
 11
95.00306999999999
 21
82.51120999999999
 31
0.0
  0
LINE
  5
D1
330
2
100
AcDbEntity
  8
GAIKEI
100
AcDbLine
 10
95.782585
 20
80.56800200000001
 30
0.0
 11
95.669493
 21
81.39034399999999
 31
0.0
  0
LINE
  5
D2
330
2
100
AcDbEntity
  8
GAIKEI
 62
     1
100
AcDbLine
 10
93.74157
 20
80.13629899999999
 30
0.0
 11
93.74157
 21
82.63970099999999
 31
0.0
  0
LINE
  5
D3
330
2
100
AcDbEntity
  8
GAIKEI
 62
     1
100
AcDbLine
 10
94.04656999999998
 20
80.13629899999999
 30
0.0
 11
94.04656999999998
 21
82.525498
 31
0.0
  0
LINE
  5
D4
330
2
100
AcDbEntity
  8
GAIKEI
 62
     1
100
AcDbLine
 10
93.69657
 20
80.13629899999999
 30
0.0
 11
93.69657
 21
82.58096999999999
 31
0.0
  0
LINE
  5
D5
330
2
100
AcDbEntity
  8
GAIKEI
100
AcDbLine
 10
95.77156999999999
 20
66.33629899999999
 30
0.0
 11
95.77156999999999
 21
74.836299
 31
0.0
  0
ARC
  5
D6
330
2
100
AcDbEntity
  8
GAIKEI
100
AcDbCircle
 10
95.77156999999999
 20
66.31129900000001
 30
0.0
 40
0.025
100
AcDbArc
 50
0.0
 51
90.0
  0
ARC
  5
D7
330
2
100
AcDbEntity
  8
GAIKEI
100
AcDbCircle
 10
94.29656999999998
 20
79.90895999999999
 30
0.0
 40
1.5
100
AcDbArc
 50
352.169542
 51
0.0
  0
ARC
  5
D8
330
2
100
AcDbEntity
  8
GAIKEI
100
AcDbCircle
 10
94.29656999999998
 20
80.36363900000001
 30
0.0
 40
1.5
100
AcDbArc
 50
0.0
 51
7.830457000000001
  0
ARC
  5
D9
330
2
100
AcDbEntity
  8
GAIKEI
100
AcDbCircle
 10
95.77156999999999
 20
74.861299
 30
0.0
 40
0.025
100
AcDbArc
 50
270.0
 51
0.0
  0
LINE
  5
DA
330
2
100
AcDbEntity
  8
GAIKEI
100
AcDbLine
 10
95.79656999999999
 20
74.861299
 30
0.0
 11
95.79656999999999
 21
80.41699200000001
 31
0.0
  0
LINE
  5
DB
330
2
100
AcDbEntity
  8
GAIKEI
100
AcDbLine
 10
95.782585
 20
79.70459599999999
 30
0.0
 11
95.669493
 21
78.882255
 31
0.0
  0
LINE
  5
DC
330
2
100
AcDbEntity
  8
GAIKEI
 62
     1
100
AcDbLine
 10
95.34107
 20
80.13629899999999
 30
0.0
 11
95.34107
 21
79.90895999999999
 31
0.0
  0
LINE
  5
DD
330
2
100
AcDbEntity
  8
GAIKEI
 62
     1
100
AcDbLine
 10
95.28907
 20
80.13629899999999
 30
0.0
 11
95.28907
 21
79.90895999999999
 31
0.0
  0
ARC
  5
DE
330
2
100
AcDbEntity
  8
GAIKEI
 62
     1
100
AcDbCircle
 10
94.29656999999998
 20
79.90895999999999
 30
0.0
 40
0.9925
100
AcDbArc
 50
352.169542
 51
0.0
  0
ARC
  5
DF
330
2
100
AcDbEntity
  8
GAIKEI
 62
     1
100
AcDbCircle
 10
94.29656999999998
 20
79.90895999999999
 30
0.0
 40
1.044499999999999
100
AcDbArc
 50
352.169542
 51
0.0
  0
LINE
  5
E0
330
2
100
AcDbEntity
  8
GAIKEI
100
AcDbLine
 10
95.79656999999999
 20
80.13629899999999
 30
0.0
 11
95.79656999999999
 21
79.90895999999999
 31
0.0
  0
LINE
  5
E1
330
2
100
AcDbEntity
  8
GAIKEI
 62
     1
100
AcDbLine
 10
95.34107
 20
80.13629899999999
 30
0.0
 11
95.34107
 21
80.36363900000001
 31
0.0
  0
LINE
  5
E2
330
2
100
AcDbEntity
  8
GAIKEI
 62
     1
100
AcDbLine
 10
95.28907
 20
80.13629899999999
 30
0.0
 11
95.28907
 21
80.36363900000001
 31
0.0
  0
ARC
  5
E3
330
2
100
AcDbEntity
  8
GAIKEI
 62
     1
100
AcDbCircle
 10
94.29656999999998
 20
80.36363900000001
 30
0.0
 40
0.9925
100
AcDbArc
 50
0.0
 51
7.830457000000001
  0
ARC
  5
E4
330
2
100
AcDbEntity
  8
GAIKEI
 62
     1
100
AcDbCircle
 10
94.29656999999998
 20
80.36363900000001
 30
0.0
 40
1.044499999999999
100
AcDbArc
 50
0.0
 51
7.830457000000001
  0
LINE
  5
E5
330
2
100
AcDbEntity
  8
GAIKEI
100
AcDbLine
 10
95.79656999999999
 20
80.13629899999999
 30
0.0
 11
95.79656999999999
 21
80.36363900000001
 31
0.0
  0
ARC
  5
E6
330
2
100
AcDbEntity
  8
GAIKEI
100
AcDbCircle
 10
95.13327
 20
77.552109
 30
0.0
 40
0.35
100
AcDbArc
 50
282.0947569999999
 51
352.169542
  0
LINE
  5
E7
330
2
100
AcDbEntity
  8
GAIKEI
100
AcDbLine
 10
95.492793
 20
77.597403
 30
0.0
 11
95.480008
 21
77.504424
 31
0.0
  0
ARC
  5
E8
330
2
100
AcDbEntity
  8
GAIKEI
 62
     1
100
AcDbCircle
 10
94.89962
 20
77.728481
 30
0.0
 40
0.15
100
AcDbArc
 50
272.0
 51
352.169542
  0
ARC
  5
E9
330
2
100
AcDbEntity
  8
GAIKEI
 62
     1
100
AcDbCircle
 10
94.85446800000001
 20
77.78182499999999
 30
0.0
 40
0.15
100
AcDbArc
 50
272.0
 51
352.169542
  0
LINE
  5
EA
330
2
100
AcDbEntity
  8
GAIKEI
  6
PHANTOM
 62
     1
100
AcDbLine
 10
95.42156999999999
 20
77.010191
 30
0.0
 11
95.61283000000001
 21
77.25976700000001
 31
0.0
  0
ARC
  5
EB
330
2
100
AcDbEntity
  8
GAIKEI
 62
     1
100
AcDbCircle
 10
94.92156999999998
 20
77.010191
 30
0.0
 40
0.5
100
AcDbArc
 50
0.0
 51
31.882725
  0
ARC
  5
EC
330
2
100
AcDbEntity
  8
GAIKEI
 62
     1
100
AcDbCircle
 10
95.11283
 20
77.25976700000001
 30
0.0
 40
0.5
100
AcDbArc
 50
0.0
 51
40.80569099999999
  0
LINE
  5
ED
330
2
100
AcDbEntity
  8
GAIKEI
 62
     1
100
AcDbLine
 10
95.61283000000001
 20
77.25976700000001
 30
0.0
 11
95.61283000000001
 21
78.470247
 31
0.0
  0
LINE
  5
EE
330
2
100
AcDbEntity
  8
GAIKEI
 62
     1
100
AcDbLine
 10
95.33133300000001
 20
79.766655
 30
0.0
 11
95.04822299999998
 21
77.708045
 31
0.0
  0
LINE
  5
EF
330
2
100
AcDbEntity
  8
GAIKEI
100
AcDbLine
 10
95.669493
 20
78.882255
 30
0.0
 11
95.492793
 21
77.597403
 31
0.0
  0
LINE
  5
F0
330
2
100
AcDbEntity
  8
GAIKEI
 62
     1
100
AcDbLine
 10
95.279818
 20
79.773739
 30
0.0
 11
95.00306999999999
 21
77.76138900000001
 31
0.0
  0
ARC
  5
F1
330
2
100
AcDbEntity
  8
GAIKEI
 62
     1
100
AcDbCircle
 10
93.84657
 20
77.69162900000001
 30
0.0
 40
0.15
100
AcDbArc
 50
180.0
 51
272.0
  0
LINE
  5
F2
330
2
100
AcDbEntity
  8
GAIKEI
 62
     1
100
AcDbLine
 10
93.79331500000001
 20
77.58292800000001
 30
0.0
 11
94.15106299999999
 21
77.595421
 31
0.0
  0
ARC
  5
F3
330
2
100
AcDbEntity
  8
GAIKEI
 62
     1
100
AcDbCircle
 10
94.19656999999999
 20
77.747101
 30
0.0
 40
0.15
100
AcDbArc
 50
180.0
 51
252.214504
  0
LINE
  5
F4
330
2
100
AcDbEntity
  8
GAIKEI
 62
     1
100
AcDbLine
 10
94.15106299999999
 20
77.595421
 30
0.0
 11
94.15075300000001
 21
77.60426999999999
 31
0.0
  0
ARC
  5
F5
330
2
100
AcDbEntity
  8
GAIKEI
 62
     1
100
AcDbCircle
 10
93.79156999999999
 20
77.632897
 30
0.0
 40
0.05
100
AcDbArc
 50
180.0
 51
272.0
  0
LINE
  5
F6
330
2
100
AcDbEntity
  8
GAIKEI
100
AcDbLine
 10
93.57156999999999
 20
76.88629899999999
 30
0.0
 11
93.69657
 21
76.88629899999999
 31
0.0
  0
LINE
  5
F7
330
2
100
AcDbEntity
  8
GAIKEI
 62
     1
100
AcDbLine
 10
93.74157
 20
80.13629899999999
 30
0.0
 11
93.74157
 21
77.632897
 31
0.0
  0
LINE
  5
F8
330
2
100
AcDbEntity
  8
GAIKEI
 62
     1
100
AcDbLine
 10
94.04656999999998
 20
80.13629899999999
 30
0.0
 11
94.04656999999998
 21
77.747101
 31
0.0
  0
LINE
  5
F9
330
2
100
AcDbEntity
  8
GAIKEI
 62
     1
100
AcDbLine
 10
93.69657
 20
80.13629899999999
 30
0.0
 11
93.69657
 21
77.69162900000001
 31
0.0
  0
LINE
  5
FA
330
2
100
AcDbEntity
  8
GAIKEI
100
AcDbLine
 10
95.20660500000001
 20
77.209878
 30
0.0
 11
93.69657
 21
76.88629899999999
 31
0.0
  0
LINE
  5
FB
330
2
100
AcDbEntity
  8
GAIKEI
 62
     1
100
AcDbLine
 10
93.851805
 20
77.54172
 30
0.0
 11
94.904858
 21
77.57849399999999
 31
0.0
  0
LINE
  5
FC
330
2
100
AcDbEntity
  8
GAIKEI
 62
     1
100
AcDbLine
 10
94.14324999999999
 20
77.606898
 30
0.0
 11
94.85970299999999
 21
77.631917
 31
0.0
  0
LINE
  5
FD
330
2
100
AcDbEntity
  8
GAIKEI
100
AcDbLine
 10
93.57156999999999
 20
84.586299
 30
0.0
 11
91.41895500000002
 21
84.47348599999999
 31
0.0
  0
ARC
  5
FE
330
2
100
AcDbEntity
  8
GAIKEI
100
AcDbCircle
 10
91.42156999999999
 20
84.42355400000002
 30
0.0
 40
0.05
100
AcDbArc
 50
93.0
 51
180.0
  0
LINE
  5
FF
330
2
100
AcDbEntity
  8
GAIKEI
100
AcDbLine
 10
95.669493
 20
81.39034399999999
 30
0.0
 11
95.492793
 21
82.67519599999999
 31
0.0
  0
ARC
  5
100
330
2
100
AcDbEntity
  8
GAIKEI
 62
     1
100
AcDbCircle
 10
95.13327
 20
82.72049
 30
0.0
 40
0.35
100
AcDbArc
 50
7.830457000000001
 51
77.905243
  0
LINE
  5
101
330
2
100
AcDbEntity
  8
GAIKEI
100
AcDbLine
 10
95.492793
 20
82.67519599999999
 30
0.0
 11
95.480008
 21
82.76817499999999
 31
0.0
  0
ARC
  5
102
330
2
100
AcDbEntity
  8
GAIKEI
 62
     1
100
AcDbCircle
 10
94.89962
 20
82.54411800000001
 30
0.0
 40
0.15
100
AcDbArc
 50
7.830457000000001
 51
88.0
  0
ARC
  5
103
330
2
100
AcDbEntity
  8
GAIKEI
 62
     1
100
AcDbCircle
 10
94.85446800000001
 20
82.49077300000001
 30
0.0
 40
0.15
100
AcDbArc
 50
7.830457000000001
 51
88.0
  0
ARC
  5
104
330
2
100
AcDbEntity
  8
GAIKEI
100
AcDbCircle
 10
95.198368
 20
82.877114
 30
0.0
 40
0.25
100
AcDbArc
 50
8.0
 51
78.0
  0
LINE
  5
105
330
2
100
AcDbEntity
  8
GAIKEI
100
AcDbLine
 10
95.45274499999999
 20
82.863445
 30
0.0
 11
95.445933
 21
82.911908
 31
0.0
  0
ARC
  5
106
330
2
100
AcDbEntity
  8
GAIKEI
 62
     1
100
AcDbCircle
 10
93.84657
 20
82.58096999999999
 30
0.0
 40
0.15
100
AcDbArc
 50
88.0
 51
180.0
  0
LINE
  5
107
330
2
100
AcDbEntity
  8
GAIKEI
 62
     1
100
AcDbLine
 10
93.79331500000001
 20
82.68967099999999
 30
0.0
 11
94.15106299999999
 21
82.67717799999999
 31
0.0
  0
ARC
  5
108
330
2
100
AcDbEntity
  8
GAIKEI
 62
     1
100
AcDbCircle
 10
94.19656999999999
 20
82.525498
 30
0.0
 40
0.15
100
AcDbArc
 50
107.785497
 51
180.0
  0
LINE
  5
109
330
2
100
AcDbEntity
  8
GAIKEI
 62
     1
100
AcDbLine
 10
94.15106299999999
 20
82.67717799999999
 30
0.0
 11
94.15075300000001
 21
82.668329
 31
0.0
  0
ARC
  5
10A
330
2
100
AcDbEntity
  8
GAIKEI
 62
     1
100
AcDbCircle
 10
93.79156999999999
 20
82.63970099999999
 30
0.0
 40
0.05
100
AcDbArc
 50
88.0
 51
180.0
  0
ARC
  5
10B
330
2
100
AcDbEntity
  8
GAIKEI
 62
     1
100
AcDbCircle
 10
93.72657
 20
82.93436899999999
 30
0.0
 40
0.5
100
AcDbArc
 50
48.50663
 51
78.0
  0
LINE
  5
10C
330
2
100
AcDbEntity
  8
GAIKEI
 62
     1
100
AcDbLine
 10
93.57156999999999
 20
83.38629899999999
 30
0.0
 11
93.69657
 21
83.38629899999999
 31
0.0
  0
ARC
  5
10D
330
2
100
AcDbEntity
  8
GAIKEI
100
AcDbCircle
 10
93.79656999999999
 20
83.68624500000001
 30
0.0
 40
0.25
100
AcDbArc
 50
205.841933
 51
257.999999
  0
LINE
  5
10E
330
2
100
AcDbEntity
  8
GAIKEI
 62
     1
100
AcDbLine
 10
95.20660500000001
 20
83.06272099999999
 30
0.0
 11
93.69657
 21
83.38629899999999
 31
0.0
  0
LINE
  5
10F
330
2
100
AcDbEntity
  8
GAIKEI
 62
     1
100
AcDbLine
 10
93.851805
 20
82.730878
 30
0.0
 11
94.904858
 21
82.69410500000001
 31
0.0
  0
LINE
  5
110
330
2
100
AcDbEntity
  8
GAIKEI
 62
     1
100
AcDbLine
 10
94.14324999999999
 20
82.665701
 30
0.0
 11
94.85970299999999
 21
82.640682
 31
0.0
  0
LINE
  5
111
330
2
100
AcDbEntity
  8
GAIKEI
100
AcDbLine
 10
95.250345
 20
83.12165099999999
 30
0.0
 11
93.74459300000001
 21
83.44170799999998
 31
0.0
  0
TEXT
  5
112
330
2
100
AcDbEntity
  8
TOUROKU
100
AcDbText
 10
106.59995
 20
103.0
 30
0.0
 40
2.0
  1
ＴＨ３７ＰＷＤ７
 72
     2
 11
124.99995
 21
103.0
 31
0.0
100
AcDbText
  0
LINE
  5
118
330
2
100
AcDbEntity
  8
WAKU
 62
     4
100
AcDbLine
 10
125.0
 20
0.0
 30
0.0
 11
0.0
 21
0.0
 31
0.0
  0
LINE
  5
11A
330
2
100
AcDbEntity
  8
WAKU
 62
     1
100
AcDbLine
 10
0.0
 20
5.0
 30
0.0
 11
125.0
 21
5.0
 31
0.0
  0
LINE
  5
11B
330
2
100
AcDbEntity
  8
WAKU
 62
     1
100
AcDbLine
 10
0.0
 20
10.0
 30
0.0
 11
125.0
 21
10.0
 31
0.0
  0
LINE
  5
11C
330
2
100
AcDbEntity
  8
WAKU
 62
     1
100
AcDbLine
 10
0.0
 20
20.0
 30
0.0
 11
125.0
 21
20.0
 31
0.0
  0
LINE
  5
11D
330
2
100
AcDbEntity
  8
WAKU
 62
     1
100
AcDbLine
 10
0.0
 20
30.0
 30
0.0
 11
125.0
 21
30.0
 31
0.0
  0
LINE
  5
11E
330
2
100
AcDbEntity
  8
WAKU
 62
     4
100
AcDbLine
 10
0.0
 20
35.0
 30
0.0
 11
125.0
 21
35.0
 31
0.0
  0
LINE
  5
11F
330
2
100
AcDbEntity
  8
WAKU
 62
     1
100
AcDbLine
 10
0.0
 20
15.0
 30
0.0
 11
125.0
 21
15.0
 31
0.0
  0
LINE
  5
120
330
2
100
AcDbEntity
  8
WAKU
 62
     1
100
AcDbLine
 10
0.0
 20
25.0
 30
0.0
 11
125.0
 21
25.0
 31
0.0
  0
LINE
  5
121
330
2
100
AcDbEntity
  8
WAKU
 62
     4
100
AcDbLine
 10
40.0
 20
35.0
 30
0.0
 11
40.0
 21
0.0
 31
0.0
  0
LINE
  5
122
330
2
100
AcDbEntity
  8
WAKU
 62
     4
100
AcDbLine
 10
0.0
 20
35.0
 30
0.0
 11
0.0
 21
0.0
 31
0.0
  0
TEXT
  5
123
330
2
100
AcDbEntity
  8
MOJI1
100
AcDbText
 10
2.5
 20
11.0
 30
0.0
 40
3.0
  1
音声最大出力
100
AcDbText
  0
TEXT
  5
124
330
2
100
AcDbEntity
  8
MOJI1
100
AcDbText
 10
2.5
 20
21.0
 30
0.0
 40
3.0
  1
パネルサイズ
100
AcDbText
  0
TEXT
  5
125
330
2
100
AcDbEntity
  8
MOJI1
100
AcDbText
 10
2.5
 20
16.0
 30
0.0
 40
3.0
  1
画素数
100
AcDbText
  0
TEXT
  5
126
330
2
100
AcDbEntity
  8
MOJI1
100
AcDbText
 10
2.5
 20
6.0
 30
0.0
 40
3.0
  1
接続端子
100
AcDbText
  0
TEXT
  5
127
330
2
100
AcDbEntity
  8
MOJI1
100
AcDbText
 10
2.5
 20
26.0
 30
0.0
 40
3.0
  1
消費電力
100
AcDbText
  0
TEXT
  5
128
330
2
100
AcDbEntity
  8
MOJI1
100
AcDbText
 10
2.5
 20
31.0
 30
0.0
 40
3.0
  1
電  源
100
AcDbText
  0
LINE
  5
12C
330
2
100
AcDbEntity
  8
WAKU
 62
     4
100
AcDbLine
 10
125.0
 20
35.0
 30
0.0
 11
125.0
 21
0.0
 31
0.0
  0
LINE
  5
132
330
2
100
AcDbEntity
  8
SUNPO
100
AcDbLine
 10
21.024084
 20
86.63630000000001
 30
0.0
 11
21.024084
 21
94.6363
 31
0.0
  0
LINE
  5
133
330
2
100
AcDbEntity
  8
SUNPO
100
AcDbLine
 10
67.024084
 20
86.63630000000001
 30
0.0
 11
67.024084
 21
94.6363
 31
0.0
  0
LINE
  5
134
330
2
100
AcDbEntity
  8
SUNPO
100
AcDbLine
 10
23.024084
 20
92.6363
 30
0.0
 11
65.024084
 21
92.6363
 31
0.0
  0
POINT
  5
13A
330
2
100
AcDbEntity
  8
SUNPO
100
AcDbPoint
 10
67.024084
 20
92.6363
 30
0.0
  0
LINE
  5
13B
330
2
100
AcDbEntity
  8
SUNPO
100
AcDbLine
 10
91.25985599999999
 20
86.63630000000001
 30
0.0
 11
91.25985599999999
 21
94.6363
 31
0.0
  0
LINE
  5
13C
330
2
100
AcDbEntity
  8
SUNPO
100
AcDbLine
 10
95.684856
 20
86.63630000000001
 30
0.0
 11
95.684856
 21
94.6363
 31
0.0
  0
LINE
  5
13D
330
2
100
AcDbEntity
  8
SUNPO
100
AcDbLine
 10
89.259856
 20
92.6363
 30
0.0
 11
87.25985599999999
 21
92.6363
 31
0.0
  0
LINE
  5
13E
330
2
100
AcDbEntity
  8
SUNPO
100
AcDbLine
 10
97.68485600000001
 20
92.6363
 30
0.0
 11
104.851523
 21
92.6363
 31
0.0
  0
LINE
  5
13F
330
2
100
AcDbEntity
  8
SUNPO
100
AcDbLine
 10
91.25985599999999
 20
92.6363
 30
0.0
 11
95.684856
 21
92.6363
 31
0.0
  0
POINT
  5
145
330
2
100
AcDbEntity
  8
SUNPO
100
AcDbPoint
 10
95.684856
 20
92.6363
 30
0.0
  0
LINE
  5
146
330
2
100
AcDbEntity
  8
SUNPO
100
AcDbLine
 10
69.034413
 20
57.086301
 30
0.0
 11
77.034413
 21
57.086301
 31
0.0
  0
LINE
  5
147
330
2
100
AcDbEntity
  8
SUNPO
100
AcDbLine
 10
69.034413
 20
84.636586
 30
0.0
 11
77.034413
 21
84.636586
 31
0.0
  0
LINE
  5
148
330
2
100
AcDbEntity
  8
SUNPO
100
AcDbLine
 10
75.034413
 20
59.08630099999999
 30
0.0
 11
75.034413
 21
82.63658599999999
 31
0.0
  0
POINT
  5
14E
330
2
100
AcDbEntity
  8
SUNPO
100
AcDbPoint
 10
75.034413
 20
84.636586
 30
0.0
  0
TEXT
  5
14F
330
2
100
AcDbEntity
  8
SUNPO
100
AcDbText
 10
40.69075
 20
93.13630000000001
 30
0.0
 40
2.5
  1
920
100
AcDbText
  0
LINE
  5
150
330
2
100
AcDbEntity
  8
SUNPO
  6
ByBlock
100
AcDbLine
 10
23.024084
 20
92.100401
 30
0.0
 11
21.024084
 21
92.6363
 31
0.0
  0
LINE
  5
151
330
2
100
AcDbEntity
  8
SUNPO
  6
ByBlock
100
AcDbLine
 10
21.024084
 20
92.6363
 30
0.0
 11
23.024084
 21
93.172198
 31
0.0
  0
LINE
  5
152
330
2
100
AcDbEntity
  8
SUNPO
  6
ByBlock
100
AcDbLine
 10
21.024084
 20
92.6363
 30
0.0
 11
23.024084
 21
92.6363
 31
0.0
  0
LINE
  5
153
330
2
100
AcDbEntity
  8
SUNPO
  6
ByBlock
100
AcDbLine
 10
65.024084
 20
93.172198
 30
0.0
 11
67.024084
 21
92.6363
 31
0.0
  0
LINE
  5
154
330
2
100
AcDbEntity
  8
SUNPO
  6
ByBlock
100
AcDbLine
 10
67.024084
 20
92.6363
 30
0.0
 11
65.024084
 21
92.100401
 31
0.0
  0
LINE
  5
155
330
2
100
AcDbEntity
  8
SUNPO
  6
ByBlock
100
AcDbLine
 10
67.024084
 20
92.6363
 30
0.0
 11
65.024084
 21
92.6363
 31
0.0
  0
LINE
  5
156
330
2
100
AcDbEntity
  8
SUNPO
  6
ByBlock
100
AcDbLine
 10
89.259856
 20
93.172198
 30
0.0
 11
91.25985599999999
 21
92.6363
 31
0.0
  0
LINE
  5
157
330
2
100
AcDbEntity
  8
SUNPO
  6
ByBlock
100
AcDbLine
 10
91.25985599999999
 20
92.6363
 30
0.0
 11
89.259856
 21
92.100401
 31
0.0
  0
LINE
  5
158
330
2
100
AcDbEntity
  8
SUNPO
  6
ByBlock
100
AcDbLine
 10
91.25985599999999
 20
92.6363
 30
0.0
 11
89.259856
 21
92.6363
 31
0.0
  0
LINE
  5
159
330
2
100
AcDbEntity
  8
SUNPO
  6
ByBlock
100
AcDbLine
 10
97.68485600000001
 20
92.100401
 30
0.0
 11
95.684856
 21
92.6363
 31
0.0
  0
LINE
  5
15A
330
2
100
AcDbEntity
  8
SUNPO
  6
ByBlock
100
AcDbLine
 10
95.684856
 20
92.6363
 30
0.0
 11
97.68485600000001
 21
93.172198
 31
0.0
  0
LINE
  5
15B
330
2
100
AcDbEntity
  8
SUNPO
  6
ByBlock
100
AcDbLine
 10
95.684856
 20
92.6363
 30
0.0
 11
97.68485600000001
 21
92.6363
 31
0.0
  0
TEXT
  5
15C
330
2
100
AcDbEntity
  8
SUNPO
100
AcDbText
 10
100.184856
 20
93.13630000000001
 30
0.0
 40
2.5
  1
89
100
AcDbText
  0
TEXT
  5
15D
330
2
100
AcDbEntity
  8
SUNPO
100
AcDbText
 10
74.534413
 20
67.52811
 30
0.0
 40
2.5
  1
550
 50
90.0
100
AcDbText
  0
LINE
  5
15E
330
2
100
AcDbEntity
  8
SUNPO
  6
ByBlock
100
AcDbLine
 10
75.570311
 20
59.08630099999999
 30
0.0
 11
75.034413
 21
57.086301
 31
0.0
  0
LINE
  5
15F
330
2
100
AcDbEntity
  8
SUNPO
  6
ByBlock
100
AcDbLine
 10
75.034413
 20
57.086301
 30
0.0
 11
74.498515
 21
59.08630099999999
 31
0.0
  0
LINE
  5
160
330
2
100
AcDbEntity
  8
SUNPO
  6
ByBlock
100
AcDbLine
 10
75.034413
 20
57.086301
 30
0.0
 11
75.034413
 21
59.08630099999999
 31
0.0
  0
LINE
  5
161
330
2
100
AcDbEntity
  8
SUNPO
  6
ByBlock
100
AcDbLine
 10
74.498515
 20
82.63658599999999
 30
0.0
 11
75.034413
 21
84.636586
 31
0.0
  0
LINE
  5
162
330
2
100
AcDbEntity
  8
SUNPO
  6
ByBlock
100
AcDbLine
 10
75.034413
 20
84.636586
 30
0.0
 11
75.570311
 21
82.63658599999999
 31
0.0
  0
LINE
  5
163
330
2
100
AcDbEntity
  8
SUNPO
  6
ByBlock
100
AcDbLine
 10
75.034413
 20
84.636586
 30
0.0
 11
75.034413
 21
82.63658599999999
 31
0.0
  0
TEXT
  5
172
330
2
100
AcDbEntity
  8
MOJI1
100
AcDbText
 10
42.5
 20
1.0
 30
0.0
 40
3.0
  1
コンポーネントビデオ、シリアル
100
AcDbText
  0
TEXT
  5
173
330
2
100
AcDbEntity
  8
MOJI1
100
AcDbText
 10
42.5
 20
6.0
 30
0.0
 40
3.0
  1
ビデオ／Ｓビデオ／ＰＣ／外部スピーカ
100
AcDbText
  0
TEXT
  5
174
330
2
100
AcDbEntity
  8
MOJI1
100
AcDbText
 10
42.5
 20
11.0
 30
0.0
 40
3.0
  1
１６Ｗ（８Ｗ＋８Ｗ）
100
AcDbText
  0
TEXT
  5
175
330
2
100
AcDbEntity
  8
MOJI1
100
AcDbText
 10
42.5
 20
16.0
 30
0.0
 40
3.0
  1
４０８９６０画素（水平８５２×垂直４８０）
100
AcDbText
  0
TEXT
  5
176
330
2
100
AcDbEntity
  8
MOJI1
100
AcDbText
 10
42.5
 20
21.0
 30
0.0
 40
3.0
  1
３７Ｖ型（１６：９）
100
AcDbText
  0
TEXT
  5
177
330
2
100
AcDbEntity
  8
MOJI1
100
AcDbText
 10
42.5
 20
26.0
 30
0.0
 40
3.0
  1
１８５Ｗ
100
AcDbText
  0
TEXT
  5
178
330
2
100
AcDbEntity
  8
MOJI1
100
AcDbText
 10
42.5
 20
31.0
 30
0.0
 40
3.0
  1
ＡＣ１００Ｖ　５０Ｈｚ／６０Ｈｚ
100
AcDbText
  0
ENDSEC
  0
SECTION
  2
OBJECTS
  0
DICTIONARY
  5
21
330
0
100
AcDbDictionary
281
     1
  3
ACAD_COLOR
350
16C
  3
ACAD_GROUP
350
1F
  3
ACAD_LAYOUT
350
16D
  3
ACAD_MATERIAL
350
16B
  3
ACAD_MLINESTYLE
350
20
  3
ACAD_PLOTSETTINGS
350
16E
  3
ACAD_PLOTSTYLENAME
350
169
  3
ACDBHEADERROUNDTRIPXREC
350
17D
  3
AcDbVariableDictionary
350
179
  0
DICTIONARY
  5
F
330
0
100
AcDbDictionary
280
     1
281
     1
  3
ACAD_LAYERFILTERS
360
10
  0
DICTIONARY
  5
3
330
2
100
AcDbDictionary
280
     1
281
     1
  3
ACAD_LAYOUTSELFREF
360
4
  0
DICTIONARY
  5
A
330
9
100
AcDbDictionary
280
     1
281
     1
  3
ACAD_LAYOUTSELFREF
360
B
  0
DICTIONARY
  5
16C
102
{ACAD_REACTORS
330
21
102
}
330
21
100
AcDbDictionary
281
     1
  0
DICTIONARY
  5
1F
102
{ACAD_REACTORS
330
21
102
}
330
21
100
AcDbDictionary
281
     1
  0
DICTIONARY
  5
16D
102
{ACAD_REACTORS
330
21
102
}
330
21
100
AcDbDictionary
281
     1
  3
Model
350
16F
  3
レイアウト1
350
170
  0
DICTIONARY
  5
16B
102
{ACAD_REACTORS
330
21
102
}
330
21
100
AcDbDictionary
281
     1
  0
DICTIONARY
  5
20
102
{ACAD_REACTORS
330
21
102
}
330
21
100
AcDbDictionary
281
     1
  3
STANDARD
350
25
  0
DICTIONARY
  5
16E
102
{ACAD_REACTORS
330
21
102
}
330
21
100
AcDbDictionary
281
     1
  0
ACDBDICTIONARYWDFLT
  5
169
102
{ACAD_REACTORS
330
21
102
}
330
21
100
AcDbDictionary
281
     1
  3
Normal
350
16A
100
AcDbDictionaryWithDefault
340
16A
  0
DICTIONARY
  5
17D
102
{ACAD_REACTORS
330
21
102
}
330
21
100
AcDbDictionary
281
     1
  3
COLORDICT
350
17F
  3
MATERIALDICT
350
17E
  0
DICTIONARY
  5
179
102
{ACAD_REACTORS
330
21
102
}
330
21
100
AcDbDictionary
281
     1
  3
DIMASSOC
350
17A
  3
PROJECTNAME
350
17B
  0
DICTIONARY
  5
10
102
{ACAD_REACTORS
330
F
102
}
330
F
100
AcDbDictionary
280
     1
281
     1
  3
ロック画層
360
11
  0
XRECORD
  5
4
102
{ACAD_REACTORS
330
3
102
}
330
3
100
AcDbXrecord
280
     1
340
2
  0
XRECORD
  5
B
102
{ACAD_REACTORS
330
A
102
}
330
A
100
AcDbXrecord
280
     1
340
9
  0
LAYOUT
  5
16F
102
{ACAD_XDICTIONARY
360
180
102
}
102
{ACAD_REACTORS
330
16D
102
}
330
16D
100
AcDbPlotSettings
  1

  2
\\Uranus\BFACN02M
  4

  6

 40
0.0
 41
0.0
 42
0.0
 43
0.0
 44
0.0
 45
0.0
 46
0.0
 47
0.0
 48
0.0
 49
0.0
140
0.0
141
0.0
142
1.0
143
1.0
 70
  1712
 72
     0
 73
     0
 74
     0
  7
SSC.ctb
 75
     0
147
1.0
148
0.0
149
0.0
100
AcDbLayout
  1
Model
 70
     1
 71
     0
 10
0.0
 20
0.0
 11
12.0
 21
9.0
 12
0.0
 22
0.0
 32
0.0
 14
0.0
 24
0.0
 34
0.0
 15
0.0
 25
0.0
 35
0.0
146
0.0
 13
0.0
 23
0.0
 33
0.0
 16
1.0
 26
0.0
 36
0.0
 17
0.0
 27
1.0
 37
0.0
 76
     0
330
2
  0
LAYOUT
  5
170
102
{ACAD_XDICTIONARY
360
182
102
}
102
{ACAD_REACTORS
330
16D
102
}
330
16D
100
AcDbPlotSettings
  1

  2
\\Uranus\BFACN02M
  4

  6

 40
0.0
 41
0.0
 42
0.0
 43
0.0
 44
0.0
 45
0.0
 46
0.0
 47
0.0
 48
0.0
 49
0.0
140
0.0
141
0.0
142
1.0
143
1.0
 70
   688
 72
     0
 73
     0
 74
     5
  7
SSC.ctb
 75
    16
147
1.0
148
0.0
149
0.0
100
AcDbLayout
  1
レイアウト1
 70
     1
 71
     1
 10
0.0
 20
0.0
 11
12.0
 21
9.0
 12
0.0
 22
0.0
 32
0.0
 14
1.000000000000000E+20
 24
1.000000000000000E+20
 34
1.000000000000000E+20
 15
-1.000000000000000E+20
 25
-1.000000000000000E+20
 35
-1.000000000000000E+20
146
0.0
 13
0.0
 23
0.0
 33
0.0
 16
1.0
 26
0.0
 36
0.0
 17
0.0
 27
1.0
 37
0.0
 76
     0
330
9
  0
MLINESTYLE
  5
25
102
{ACAD_REACTORS
330
20
102
}
330
20
100
AcDbMlineStyle
  2
STANDARD
 70
     0
  3

 62
   256
 51
90.0
 52
90.0
 71
     2
 49
0.5
 62
   256
  6
BYLAYER
 49
-0.5
 62
   256
  6
BYLAYER
  0
ACDBPLACEHOLDER
  5
16A
102
{ACAD_REACTORS
330
169
102
}
330
169
  0
XRECORD
  5
17F
102
{ACAD_REACTORS
330
17D
102
}
330
17D
100
AcDbXrecord
280
     1
340
16C
  0
XRECORD
  5
17E
102
{ACAD_REACTORS
330
17D
102
}
330
17D
100
AcDbXrecord
280
     1
340
16B
  0
DICTIONARYVAR
  5
17A
102
{ACAD_REACTORS
330
179
102
}
330
179
100
DictionaryVariables
280
     0
  1
1
  0
DICTIONARYVAR
  5
17B
102
{ACAD_REACTORS
330
179
102
}
330
179
100
DictionaryVariables
280
     0
  1

  0
XRECORD
  5
11
102
{ACAD_REACTORS
330
10
102
}
330
10
100
AcDbXrecord
280
     1
  1
ロック画層
  1
*
  1
*
  1
*
 70
   256
  1
*
  1
*
  0
DICTIONARY
  5
180
330
16F
100
AcDbDictionary
280
     1
281
     1
  3
ACAD_XREC_ROUNDTRIP
360
181
  0
DICTIONARY
  5
182
330
170
100
AcDbDictionary
280
     1
281
     1
  3
ACAD_XREC_ROUNDTRIP
360
183
  0
XRECORD
  5
181
102
{ACAD_REACTORS
330
180
102
}
330
180
100
AcDbXrecord
280
     1
102
SHADEPLOT
 70
     0
102
SHADEPLOTRESLEVEL
 70
     2
102
SHADEPLOTCUSTOMDPI
 70
   300
  0
XRECORD
  5
183
102
{ACAD_REACTORS
330
182
102
}
330
182
100
AcDbXrecord
280
     1
102
SHADEPLOT
 70
     0
102
SHADEPLOTRESLEVEL
 70
     2
102
SHADEPLOTCUSTOMDPI
 70
   300
  0
ENDSEC
  0
EOF
