  0
SECTION
  2
HEADER
  9
$ACADVER
  1
AC1015
  9
$ACADMAINTVER
 70
    20
  9
$DWGCODEPAGE
  3
ANSI_932
  9
$INSBASE
 10
0.0
 20
372.499214
 30
0.0
  9
$EXTMIN
 10
-0.0077968558852604
 20
-0.0055574980795541
 30
-0.0000000698494069
  9
$EXTMAX
 10
125.0081485414507
 20
113.0084402931886
 30
0.0000000465733773
  9
$LIMMIN
 10
-17.0
 20
0.0
  9
$LIMMAX
 10
140.0
 20
110.0
  9
$ORTHOMODE
 70
     1
  9
$REGENMODE
 70
     1
  9
$FILLMODE
 70
     1
  9
$QTEXTMODE
 70
     0
  9
$MIRRTEXT
 70
     1
  9
$LTSCALE
 40
1.0
  9
$ATTMODE
 70
     1
  9
$TEXTSIZE
 40
3.0
  9
$TRACEWID
 40
0.5
  9
$TEXTSTYLE
  7
STANDARD
  9
$CLAYER
  8
0
  9
$CELTYPE
  6
ByLayer
  9
$CECOLOR
 62
   256
  9
$CELTSCALE
 40
1.0
  9
$DISPSILH
 70
     0
  9
$DIMSCALE
 40
1.0
  9
$DIMASZ
 40
2.0
  9
$DIMEXO
 40
2.0
  9
$DIMDLI
 40
8.0
  9
$DIMRND
 40
0.0
  9
$DIMDLE
 40
0.0
  9
$DIMEXE
 40
2.0
  9
$DIMTP
 40
0.0
  9
$DIMTM
 40
0.0
  9
$DIMTXT
 40
2.5
  9
$DIMCEN
 40
0.0
  9
$DIMTSZ
 40
0.0
  9
$DIMTOL
 70
     0
  9
$DIMLIM
 70
     0
  9
$DIMTIH
 70
     0
  9
$DIMTOH
 70
     0
  9
$DIMSE1
 70
     0
  9
$DIMSE2
 70
     0
  9
$DIMTAD
 70
     3
  9
$DIMZIN
 70
     0
  9
$DIMBLK
  1

  9
$DIMASO
 70
     1
  9
$DIMSHO
 70
     1
  9
$DIMPOST
  1

  9
$DIMAPOST
  1

  9
$DIMALT
 70
     0
  9
$DIMALTD
 70
     2
  9
$DIMALTF
 40
25.4
  9
$DIMLFAC
 40
1.0
  9
$DIMTOFL
 70
     1
  9
$DIMTVP
 40
0.0
  9
$DIMTIX
 70
     0
  9
$DIMSOXD
 70
     0
  9
$DIMSAH
 70
     1
  9
$DIMBLK1
  1
OPEN30
  9
$DIMBLK2
  1
OPEN30
  9
$DIMSTYLE
  2
STANDARD
  9
$DIMCLRD
 70
     0
  9
$DIMCLRE
 70
     0
  9
$DIMCLRT
 70
     0
  9
$DIMTFAC
 40
1.0
  9
$DIMGAP
 40
0.5
  9
$DIMJUST
 70
     0
  9
$DIMSD1
 70
     0
  9
$DIMSD2
 70
     0
  9
$DIMTOLJ
 70
     1
  9
$DIMTZIN
 70
     0
  9
$DIMALTZ
 70
     0
  9
$DIMALTTZ
 70
     0
  9
$DIMUPT
 70
     0
  9
$DIMDEC
 70
     4
  9
$DIMTDEC
 70
     4
  9
$DIMALTU
 70
     2
  9
$DIMALTTD
 70
     2
  9
$DIMTXSTY
  7
STANDARD
  9
$DIMAUNIT
 70
     0
  9
$DIMADEC
 70
     0
  9
$DIMALTRND
 40
0.0
  9
$DIMAZIN
 70
     0
  9
$DIMDSEP
 70
    46
  9
$DIMATFIT
 70
     3
  9
$DIMFRAC
 70
     0
  9
$DIMLDRBLK
  1

  9
$DIMLUNIT
 70
     2
  9
$DIMLWD
 70
    -2
  9
$DIMLWE
 70
    -2
  9
$DIMTMOVE
 70
     0
  9
$LUNITS
 70
     2
  9
$LUPREC
 70
     4
  9
$SKETCHINC
 40
0.1
  9
$FILLETRAD
 40
0.0
  9
$AUNITS
 70
     0
  9
$AUPREC
 70
     0
  9
$MENU
  1
ACAD
  9
$ELEVATION
 40
0.0
  9
$PELEVATION
 40
0.0
  9
$THICKNESS
 40
0.0
  9
$LIMCHECK
 70
     0
  9
$CHAMFERA
 40
0.0
  9
$CHAMFERB
 40
0.0
  9
$CHAMFERC
 40
0.0
  9
$CHAMFERD
 40
0.0
  9
$SKPOLY
 70
     0
  9
$TDCREATE
 40
2451815.565532998
  9
$TDUCREATE
 40
2451815.190532998
  9
$TDUPDATE
 40
2453731.614640660
  9
$TDUUPDATE
 40
2453731.239640660
  9
$TDINDWG
 40
0.5938922222
  9
$TDUSRTIMER
 40
0.5938922222
  9
$USRTIMER
 70
     1
  9
$ANGBASE
 50
0.0
  9
$ANGDIR
 70
     0
  9
$PDMODE
 70
     0
  9
$PDSIZE
 40
0.0
  9
$PLINEWID
 40
0.0
  9
$SPLFRAME
 70
     0
  9
$SPLINETYPE
 70
     6
  9
$SPLINESEGS
 70
     8
  9
$HANDSEED
  5
1B0
  9
$SURFTAB1
 70
     6
  9
$SURFTAB2
 70
     6
  9
$SURFTYPE
 70
     6
  9
$SURFU
 70
     6
  9
$SURFV
 70
     6
  9
$UCSBASE
  2

  9
$UCSNAME
  2

  9
$UCSORG
 10
0.0
 20
0.0
 30
0.0
  9
$UCSXDIR
 10
1.0
 20
0.0
 30
0.0
  9
$UCSYDIR
 10
0.0
 20
1.0
 30
0.0
  9
$UCSORTHOREF
  2

  9
$UCSORTHOVIEW
 70
     0
  9
$UCSORGTOP
 10
0.0
 20
0.0
 30
0.0
  9
$UCSORGBOTTOM
 10
0.0
 20
0.0
 30
0.0
  9
$UCSORGLEFT
 10
0.0
 20
0.0
 30
0.0
  9
$UCSORGRIGHT
 10
0.0
 20
0.0
 30
0.0
  9
$UCSORGFRONT
 10
0.0
 20
0.0
 30
0.0
  9
$UCSORGBACK
 10
0.0
 20
0.0
 30
0.0
  9
$PUCSBASE
  2

  9
$PUCSNAME
  2

  9
$PUCSORG
 10
0.0
 20
0.0
 30
0.0
  9
$PUCSXDIR
 10
1.0
 20
0.0
 30
0.0
  9
$PUCSYDIR
 10
0.0
 20
1.0
 30
0.0
  9
$PUCSORTHOREF
  2

  9
$PUCSORTHOVIEW
 70
     0
  9
$PUCSORGTOP
 10
0.0
 20
0.0
 30
0.0
  9
$PUCSORGBOTTOM
 10
0.0
 20
0.0
 30
0.0
  9
$PUCSORGLEFT
 10
0.0
 20
0.0
 30
0.0
  9
$PUCSORGRIGHT
 10
0.0
 20
0.0
 30
0.0
  9
$PUCSORGFRONT
 10
0.0
 20
0.0
 30
0.0
  9
$PUCSORGBACK
 10
0.0
 20
0.0
 30
0.0
  9
$USERI1
 70
     0
  9
$USERI2
 70
     0
  9
$USERI3
 70
     0
  9
$USERI4
 70
     0
  9
$USERI5
 70
     0
  9
$USERR1
 40
0.0
  9
$USERR2
 40
0.0
  9
$USERR3
 40
0.0
  9
$USERR4
 40
0.0
  9
$USERR5
 40
0.0
  9
$WORLDVIEW
 70
     1
  9
$SHADEDGE
 70
     3
  9
$SHADEDIF
 70
    70
  9
$TILEMODE
 70
     1
  9
$MAXACTVP
 70
    48
  9
$PINSBASE
 10
0.0
 20
0.0
 30
0.0
  9
$PLIMCHECK
 70
     0
  9
$PEXTMIN
 10
1.000000000000000E+20
 20
1.000000000000000E+20
 30
1.000000000000000E+20
  9
$PEXTMAX
 10
-1.000000000000000E+20
 20
-1.000000000000000E+20
 30
-1.000000000000000E+20
  9
$PLIMMIN
 10
0.0
 20
0.0
  9
$PLIMMAX
 10
12.0
 20
9.0
  9
$UNITMODE
 70
     0
  9
$VISRETAIN
 70
     1
  9
$PLINEGEN
 70
     0
  9
$PSLTSCALE
 70
     1
  9
$TREEDEPTH
 70
  3020
  9
$CMLSTYLE
  2
Standard
  9
$CMLJUST
 70
     0
  9
$CMLSCALE
 40
1.0
  9
$PROXYGRAPHICS
 70
     1
  9
$MEASUREMENT
 70
     0
  9
$CELWEIGHT
370
    -1
  9
$ENDCAPS
280
     0
  9
$JOINSTYLE
280
     0
  9
$LWDISPLAY
290
     0
  9
$INSUNITS
 70
     0
  9
$HYPERLINKBASE
  1

  9
$STYLESHEET
  1

  9
$XEDIT
290
     1
  9
$CEPSNTYPE
380
     0
  9
$PSTYLEMODE
290
     1
  9
$FINGERPRINTGUID
  2
{AFE378F1-CC6B-4011-85E8-DFA7C2521BD4}
  9
$VERSIONGUID
  2
{CF710E7F-67C7-41B9-90BC-2A1F0D454959}
  9
$EXTNAMES
290
     1
  9
$PSVPSCALE
 40
0.0
  9
$OLESTARTUP
290
     0
  0
ENDSEC
  0
SECTION
  2
CLASSES
  0
CLASS
  1
ACDBDICTIONARYWDFLT
  2
AcDbDictionaryWithDefault
  3
ObjectDBX Classes
 90
        0
280
     0
281
     0
  0
CLASS
  1
DICTIONARYVAR
  2
AcDbDictionaryVar
  3
ObjectDBX Classes
 90
        0
280
     0
281
     0
  0
CLASS
  1
ACDBPLACEHOLDER
  2
AcDbPlaceHolder
  3
ObjectDBX Classes
 90
        0
280
     0
281
     0
  0
CLASS
  1
LAYOUT
  2
AcDbLayout
  3
ObjectDBX Classes
 90
        0
280
     0
281
     0
  0
ENDSEC
  0
SECTION
  2
TABLES
  0
TABLE
  2
VPORT
  5
16B
330
0
100
AcDbSymbolTable
 70
     2
  0
VPORT
  5
1A8
330
16B
100
AcDbSymbolTableRecord
100
AcDbViewportTableRecord
  2
*Active
 70
     0
 10
0.0
 20
0.0
 11
1.0
 21
1.0
 12
62.50017584278271
 22
56.50144139755454
 13
0.0
 23
0.0
 14
1.0
 24
1.0
 15
0.0
 25
0.0
 16
0.0
 26
0.0
 36
1.0
 17
0.0
 27
0.0
 37
0.0
 40
113.9826892009076
 41
1.589413447782546
 42
50.0
 43
0.0
 44
0.0
 50
0.0
 51
0.0
 71
     0
 72
   100
 73
     1
 74
     0
 75
     0
 76
     0
 77
     0
 78
     0
281
     0
 65
     1
110
0.0
120
0.0
130
0.0
111
1.0
121
0.0
131
0.0
112
0.0
122
1.0
132
0.0
 79
     0
146
0.0
  0
ENDTAB
  0
TABLE
  2
LTYPE
  5
168
330
0
100
AcDbSymbolTable
 70
     1
  0
LTYPE
  5
176
330
168
100
AcDbSymbolTableRecord
100
AcDbLinetypeTableRecord
  2
ByBlock
 70
     0
  3

 72
    65
 73
     0
 40
0.0
  0
LTYPE
  5
177
330
168
100
AcDbSymbolTableRecord
100
AcDbLinetypeTableRecord
  2
ByLayer
 70
     0
  3

 72
    65
 73
     0
 40
0.0
  0
LTYPE
  5
178
330
168
100
AcDbSymbolTableRecord
100
AcDbLinetypeTableRecord
  2
CONTINUOUS
 70
     0
  3
Solid line
 72
    65
 73
     0
 40
0.0
  0
ENDTAB
  0
TABLE
  2
LAYER
  5
165
330
0
100
AcDbSymbolTable
 70
     7
  0
LAYER
  5
173
330
165
100
AcDbSymbolTableRecord
100
AcDbLayerTableRecord
  2
0
 70
     0
 62
     7
  6
CONTINUOUS
370
    -3
390
172
  0
LAYER
  5
188
330
165
100
AcDbSymbolTableRecord
100
AcDbLayerTableRecord
  2
DEFPOINTS
 70
     0
 62
     7
  6
CONTINUOUS
290
     0
370
    -3
390
172
  0
LAYER
  5
189
330
165
100
AcDbSymbolTableRecord
100
AcDbLayerTableRecord
  2
WAKU
 70
     0
 62
     4
  6
CONTINUOUS
370
    -3
390
172
  0
LAYER
  5
18A
330
165
100
AcDbSymbolTableRecord
100
AcDbLayerTableRecord
  2
MOJI1
 70
     0
 62
     2
  6
CONTINUOUS
370
    -3
390
172
  0
LAYER
  5
18B
330
165
100
AcDbSymbolTableRecord
100
AcDbLayerTableRecord
  2
GAIKEI
 70
     0
 62
     7
  6
CONTINUOUS
370
    -3
390
172
  0
LAYER
  5
18C
330
165
100
AcDbSymbolTableRecord
100
AcDbLayerTableRecord
  2
SUNPO
 70
     0
 62
     3
  6
CONTINUOUS
370
    -3
390
172
  0
LAYER
  5
18D
330
165
100
AcDbSymbolTableRecord
100
AcDbLayerTableRecord
  2
TOUROKU
 70
     0
 62
     1
  6
CONTINUOUS
370
    -3
390
172
  0
ENDTAB
  0
TABLE
  2
STYLE
  5
166
330
0
100
AcDbSymbolTable
 70
     1
  0
STYLE
  5
174
330
166
100
AcDbSymbolTableRecord
100
AcDbTextStyleTableRecord
  2
STANDARD
 70
     0
 40
0.0
 41
1.0
 50
0.0
 71
     0
 42
3.0
  3
MONOTXT.shx
  4
BIGFONT.shx
  0
ENDTAB
  0
TABLE
  2
VIEW
  5
169
330
0
100
AcDbSymbolTable
 70
     0
  0
ENDTAB
  0
TABLE
  2
UCS
  5
16A
330
0
100
AcDbSymbolTable
 70
     0
  0
ENDTAB
  0
TABLE
  2
APPID
  5
16C
330
0
100
AcDbSymbolTable
 70
     1
  0
APPID
  5
175
330
16C
100
AcDbSymbolTableRecord
100
AcDbRegAppTableRecord
  2
ACAD
 70
     0
  0
ENDTAB
  0
TABLE
  2
DIMSTYLE
  5
16D
330
0
100
AcDbSymbolTable
 70
     1
100
AcDbDimStyleTable
 71
     0
  0
DIMSTYLE
105
18E
330
16D
100
AcDbSymbolTableRecord
100
AcDbDimStyleTableRecord
  2
STANDARD
 70
     0
 40
0.0
 41
2.0
 42
2.0
 43
8.0
 44
2.0
 73
     0
 74
     0
 77
     3
140
3.0
141
0.0
173
     1
279
     2
340
174
  0
ENDTAB
  0
TABLE
  2
BLOCK_RECORD
  5
164
330
0
100
AcDbSymbolTable
 70
     6
  0
BLOCK_RECORD
  5
183
330
164
100
AcDbSymbolTableRecord
100
AcDbBlockTableRecord
  2
*Model_Space
340
186
  0
BLOCK_RECORD
  5
17F
330
164
100
AcDbSymbolTableRecord
100
AcDbBlockTableRecord
  2
*Paper_Space
340
182
  0
BLOCK_RECORD
  5
195
330
164
100
AcDbSymbolTableRecord
100
AcDbBlockTableRecord
  2
_OPEN30
340
0
102
{BLKREFS
331
9C
331
9D
331
32
331
39
331
AE
331
AF
102
}
  0
ENDTAB
  0
ENDSEC
  0
SECTION
  2
BLOCKS
  0
BLOCK
  5
184
330
183
100
AcDbEntity
  8
0
100
AcDbBlockBegin
  2
*Model_Space
 70
     0
 10
0.0
 20
0.0
 30
0.0
  3
*Model_Space
  1

  0
ENDBLK
  5
185
330
183
100
AcDbEntity
  8
0
100
AcDbBlockEnd
  0
BLOCK
  5
180
330
17F
100
AcDbEntity
 67
     1
  8
0
100
AcDbBlockBegin
  2
*Paper_Space
 70
     0
 10
0.0
 20
0.0
 30
0.0
  3
*Paper_Space
  1

  0
ENDBLK
  5
181
330
17F
100
AcDbEntity
 67
     1
  8
0
100
AcDbBlockEnd
  0
BLOCK
  5
196
330
195
100
AcDbEntity
  8
0
100
AcDbBlockBegin
  2
_OPEN30
 70
     0
 10
0.0
 20
0.0
 30
0.0
  3
_OPEN30
  1

  0
LINE
  5
34
330
195
100
AcDbEntity
  8
0
  6
ByBlock
 62
     0
100
AcDbLine
 10
-1.0
 20
0.267949
 30
0.0
 11
0.0
 21
0.0
 31
0.0
  0
LINE
  5
35
330
195
100
AcDbEntity
  8
0
  6
ByBlock
 62
     0
100
AcDbLine
 10
0.0
 20
0.0
 30
0.0
 11
-1.0
 21
-0.267949
 31
0.0
  0
LINE
  5
36
330
195
100
AcDbEntity
  8
0
  6
ByBlock
 62
     0
100
AcDbLine
 10
0.0
 20
0.0
 30
0.0
 11
-1.0
 21
0.0
 31
0.0
  0
ENDBLK
  5
38
330
195
100
AcDbEntity
  8
0
100
AcDbBlockEnd
  0
ENDSEC
  0
SECTION
  2
ENTITIES
  0
TEXT
  5
29
330
183
100
AcDbEntity
  8
MOJI1
100
AcDbText
 10
27.0
 20
109.0
 30
0.0
 40
4.0
  1
ハイビジョンプラズマディスプレイ
100
AcDbText
  0
TEXT
  5
2B
330
183
100
AcDbEntity
  8
TOUROKU
100
AcDbText
 10
106.5999499999999
 20
103.0
 30
0.0
 40
2.0
  1
ＴＨ６５ＰＨＤ７
 72
     2
 11
124.99995
 21
103.0
 31
0.0
100
AcDbText
  0
LINE
  5
43
330
183
100
AcDbEntity
  8
GAIKEI
  6
Continuous
 62
     1
100
AcDbLine
 10
108.880417
 20
45.52122299999999
 30
0.0
 11
108.880417
 21
88.85915
 31
0.0
  0
LINE
  5
45
330
183
100
AcDbEntity
  8
GAIKEI
  6
Continuous
100
AcDbLine
 10
109.370417
 20
45.52122299999999
 30
0.0
 11
109.370417
 21
88.786208
 31
0.0
  0
LINE
  5
46
330
183
100
AcDbEntity
  8
GAIKEI
  6
Continuous
 62
     1
100
AcDbLine
 10
84.930417
 20
46.171223
 30
0.0
 11
84.930417
 21
88.211208
 31
0.0
  0
LINE
  5
47
330
183
100
AcDbEntity
  8
GAIKEI
  6
Continuous
100
AcDbLine
 10
86.980417
 20
44.066216
 30
0.0
 11
86.980417
 21
90.31621499999999
 31
0.0
  0
LINE
  5
48
330
183
100
AcDbEntity
  8
GAIKEI
  6
Continuous
100
AcDbLine
 10
104.420417
 20
44.22122299999999
 30
0.0
 11
104.420417
 21
90.16120800000001
 31
0.0
  0
LINE
  5
49
330
183
100
AcDbEntity
  8
GAIKEI
  6
Continuous
100
AcDbLine
 10
106.545417
 20
44.065578
 30
0.0
 11
106.545417
 21
90.29185299999999
 31
0.0
  0
LINE
  5
4A
330
183
100
AcDbEntity
  8
GAIKEI
  6
Continuous
 62
     1
100
AcDbLine
 10
104.523106
 20
44.118534
 30
0.0
 11
104.523106
 21
90.26389700000001
 31
0.0
  0
LINE
  5
4B
330
183
100
AcDbEntity
  8
GAIKEI
  6
Continuous
 62
     1
100
AcDbLine
 10
83.98791700000002
 20
47.036223
 30
0.0
 11
83.98791700000002
 21
87.346208
 31
0.0
  0
LINE
  5
4C
330
183
100
AcDbEntity
  8
GAIKEI
  6
Continuous
100
AcDbLine
 10
9.280416999999999
 20
44.066216
 30
0.0
 11
9.280416999999999
 21
90.31621499999999
 31
0.0
  0
LINE
  5
4D
330
183
100
AcDbEntity
  8
GAIKEI
  6
Continuous
 62
     1
100
AcDbLine
 10
11.330417
 20
46.171223
 30
0.0
 11
11.330417
 21
88.211208
 31
0.0
  0
LINE
  5
4E
330
183
100
AcDbEntity
  8
GAIKEI
  6
Continuous
 62
     1
100
AcDbLine
 10
12.272917
 20
47.036223
 30
0.0
 11
12.272917
 21
87.346208
 31
0.0
  0
LINE
  5
4F
330
183
100
AcDbEntity
  8
GAIKEI
  6
Continuous
100
AcDbLine
 10
9.280416999999999
 20
44.066216
 30
0.0
 11
86.980417
 21
44.066216
 31
0.0
  0
LINE
  5
50
330
183
100
AcDbEntity
  8
GAIKEI
  6
Continuous
 62
     1
100
AcDbLine
 10
9.280416999999999
 20
46.171223
 30
0.0
 11
86.980417
 21
46.171223
 31
0.0
  0
LINE
  5
51
330
183
100
AcDbEntity
  8
GAIKEI
  6
Continuous
 62
     1
100
AcDbLine
 10
12.272917
 20
47.036223
 30
0.0
 11
83.98791700000002
 21
47.036223
 31
0.0
  0
LINE
  5
52
330
183
100
AcDbEntity
  8
GAIKEI
  6
Continuous
 62
     1
100
AcDbLine
 10
23.712917
 20
45.02122299999999
 30
0.0
 11
23.392917
 21
45.02122299999999
 31
0.0
  0
LINE
  5
53
330
183
100
AcDbEntity
  8
GAIKEI
  6
Continuous
 62
     1
100
AcDbLine
 10
23.712917
 20
44.67122299999999
 30
0.0
 11
23.392917
 21
44.67122299999999
 31
0.0
  0
LINE
  5
54
330
183
100
AcDbEntity
  8
GAIKEI
  6
Continuous
 62
     1
100
AcDbLine
 10
17.377917
 20
45.31872299999999
 30
0.0
 11
17.377917
 21
44.34372299999999
 31
0.0
  0
LINE
  5
55
330
183
100
AcDbEntity
  8
GAIKEI
  6
Continuous
 62
     1
100
AcDbLine
 10
18.402917
 20
45.31872299999999
 30
0.0
 11
18.402917
 21
44.34372299999999
 31
0.0
  0
LINE
  5
56
330
183
100
AcDbEntity
  8
GAIKEI
  6
Continuous
 62
     1
100
AcDbLine
 10
18.377917
 20
44.318723
 30
0.0
 11
17.402917
 21
44.318723
 31
0.0
  0
LINE
  5
57
330
183
100
AcDbEntity
  8
GAIKEI
  6
Continuous
 62
     1
100
AcDbLine
 10
18.377917
 20
45.343723
 30
0.0
 11
17.402917
 21
45.343723
 31
0.0
  0
ARC
  5
58
330
183
100
AcDbEntity
  8
GAIKEI
  6
Continuous
 62
     1
100
AcDbCircle
 10
17.402917
 20
45.31872299999999
 30
0.0
 40
0.025
100
AcDbArc
 50
90.0
 51
180.0
  0
ARC
  5
59
330
183
100
AcDbEntity
  8
GAIKEI
  6
Continuous
 62
     1
100
AcDbCircle
 10
17.402917
 20
44.34372299999999
 30
0.0
 40
0.025
100
AcDbArc
 50
180.0
 51
270.0
  0
ARC
  5
5A
330
183
100
AcDbEntity
  8
GAIKEI
  6
Continuous
 62
     1
100
AcDbCircle
 10
18.377917
 20
44.34372299999999
 30
0.0
 40
0.025
100
AcDbArc
 50
270.0
 51
0.0
  0
ARC
  5
5B
330
183
100
AcDbEntity
  8
GAIKEI
  6
Continuous
 62
     1
100
AcDbCircle
 10
18.377917
 20
45.31872299999999
 30
0.0
 40
0.025
100
AcDbArc
 50
0.0
 51
90.0
  0
LINE
  5
5C
330
183
100
AcDbEntity
  8
GAIKEI
  6
Continuous
 62
     1
100
AcDbLine
 10
23.377917
 20
44.68622299999999
 30
0.0
 11
23.377917
 21
45.00622299999999
 31
0.0
  0
ARC
  5
5D
330
183
100
AcDbEntity
  8
GAIKEI
  6
Continuous
 62
     1
100
AcDbCircle
 10
23.392917
 20
45.00622299999999
 30
0.0
 40
0.015
100
AcDbArc
 50
90.0
 51
180.0
  0
ARC
  5
5E
330
183
100
AcDbEntity
  8
GAIKEI
  6
Continuous
 62
     1
100
AcDbCircle
 10
23.392917
 20
44.68622299999999
 30
0.0
 40
0.015
100
AcDbArc
 50
180.0
 51
270.0
  0
LINE
  5
5F
330
183
100
AcDbEntity
  8
GAIKEI
  6
Continuous
 62
     1
100
AcDbLine
 10
22.202917
 20
44.958723
 30
0.0
 11
22.027917
 21
44.958723
 31
0.0
  0
LINE
  5
60
330
183
100
AcDbEntity
  8
GAIKEI
  6
Continuous
 62
     1
100
AcDbLine
 10
22.227917
 20
44.75872299999999
 30
0.0
 11
22.227917
 21
44.93372299999999
 31
0.0
  0
LINE
  5
61
330
183
100
AcDbEntity
  8
GAIKEI
  6
Continuous
 62
     1
100
AcDbLine
 10
22.002917
 20
44.75872299999999
 30
0.0
 11
22.002917
 21
44.93372299999999
 31
0.0
  0
LINE
  5
62
330
183
100
AcDbEntity
  8
GAIKEI
  6
Continuous
 62
     1
100
AcDbLine
 10
22.202917
 20
44.733723
 30
0.0
 11
22.027917
 21
44.733723
 31
0.0
  0
ARC
  5
63
330
183
100
AcDbEntity
  8
GAIKEI
  6
Continuous
 62
     1
100
AcDbCircle
 10
22.202917
 20
44.93372299999999
 30
0.0
 40
0.025
100
AcDbArc
 50
0.0
 51
90.0
  0
ARC
  5
64
330
183
100
AcDbEntity
  8
GAIKEI
  6
Continuous
 62
     1
100
AcDbCircle
 10
22.027917
 20
44.93372299999999
 30
0.0
 40
0.025
100
AcDbArc
 50
90.0
 51
180.0
  0
ARC
  5
65
330
183
100
AcDbEntity
  8
GAIKEI
  6
Continuous
 62
     1
100
AcDbCircle
 10
22.027917
 20
44.75872299999999
 30
0.0
 40
0.025
100
AcDbArc
 50
180.0
 51
270.0
  0
ARC
  5
66
330
183
100
AcDbEntity
  8
GAIKEI
  6
Continuous
 62
     1
100
AcDbCircle
 10
22.202917
 20
44.75872299999999
 30
0.0
 40
0.025
100
AcDbArc
 50
270.0
 51
0.0
  0
LINE
  5
67
330
183
100
AcDbEntity
  8
GAIKEI
  6
Continuous
 62
     1
100
AcDbLine
 10
20.805417
 20
45.073723
 30
0.0
 11
20.805417
 21
44.61872299999999
 31
0.0
  0
LINE
  5
68
330
183
100
AcDbEntity
  8
GAIKEI
  6
Continuous
 62
     1
100
AcDbLine
 10
21.67541700000001
 20
45.073723
 30
0.0
 11
21.67541700000001
 21
44.61872299999999
 31
0.0
  0
LINE
  5
69
330
183
100
AcDbEntity
  8
GAIKEI
  6
Continuous
 62
     1
100
AcDbLine
 10
21.650417
 20
45.098723
 30
0.0
 11
20.830417
 21
45.098723
 31
0.0
  0
LINE
  5
6A
330
183
100
AcDbEntity
  8
GAIKEI
  6
Continuous
 62
     1
100
AcDbLine
 10
21.650417
 20
44.593723
 30
0.0
 11
20.830417
 21
44.593723
 31
0.0
  0
ARC
  5
6B
330
183
100
AcDbEntity
  8
GAIKEI
  6
Continuous
 62
     1
100
AcDbCircle
 10
20.830417
 20
45.073723
 30
0.0
 40
0.025
100
AcDbArc
 50
90.0
 51
180.0
  0
ARC
  5
6C
330
183
100
AcDbEntity
  8
GAIKEI
  6
Continuous
 62
     1
100
AcDbCircle
 10
20.830417
 20
44.61872299999999
 30
0.0
 40
0.025
100
AcDbArc
 50
180.0
 51
270.0
  0
ARC
  5
6D
330
183
100
AcDbEntity
  8
GAIKEI
  6
Continuous
 62
     1
100
AcDbCircle
 10
21.650417
 20
44.61872299999999
 30
0.0
 40
0.025
100
AcDbArc
 50
270.0
 51
0.0
  0
ARC
  5
6E
330
183
100
AcDbEntity
  8
GAIKEI
  6
Continuous
 62
     1
100
AcDbCircle
 10
21.650417
 20
45.073723
 30
0.0
 40
0.025
100
AcDbArc
 50
0.0
 51
90.0
  0
LINE
  5
6F
330
183
100
AcDbEntity
  8
GAIKEI
  6
Continuous
 62
     1
100
AcDbLine
 10
23.727917
 20
44.68622299999999
 30
0.0
 11
23.727917
 21
45.00622299999999
 31
0.0
  0
ARC
  5
70
330
183
100
AcDbEntity
  8
GAIKEI
  6
Continuous
 62
     1
100
AcDbCircle
 10
23.712917
 20
45.00622299999999
 30
0.0
 40
0.015
100
AcDbArc
 50
0.0
 51
90.0
  0
ARC
  5
71
330
183
100
AcDbEntity
  8
GAIKEI
  6
Continuous
 62
     1
100
AcDbCircle
 10
23.712917
 20
44.68622299999999
 30
0.0
 40
0.015
100
AcDbArc
 50
270.0
 51
0.0
  0
LINE
  5
72
330
183
100
AcDbEntity
  8
GAIKEI
  6
Continuous
 62
     1
100
AcDbLine
 10
24.377917
 20
44.68622299999999
 30
0.0
 11
24.377917
 21
45.00622299999999
 31
0.0
  0
LINE
  5
73
330
183
100
AcDbEntity
  8
GAIKEI
  6
Continuous
 62
     1
100
AcDbLine
 10
24.027917
 20
44.68622299999999
 30
0.0
 11
24.027917
 21
45.00622299999999
 31
0.0
  0
LINE
  5
74
330
183
100
AcDbEntity
  8
GAIKEI
  6
Continuous
 62
     1
100
AcDbLine
 10
24.362917
 20
45.02122299999999
 30
0.0
 11
24.042917
 21
45.02122299999999
 31
0.0
  0
LINE
  5
75
330
183
100
AcDbEntity
  8
GAIKEI
  6
Continuous
 62
     1
100
AcDbLine
 10
24.362917
 20
44.67122299999999
 30
0.0
 11
24.042917
 21
44.67122299999999
 31
0.0
  0
ARC
  5
76
330
183
100
AcDbEntity
  8
GAIKEI
  6
Continuous
 62
     1
100
AcDbCircle
 10
24.362917
 20
45.00622299999999
 30
0.0
 40
0.015
100
AcDbArc
 50
0.0
 51
90.0
  0
ARC
  5
77
330
183
100
AcDbEntity
  8
GAIKEI
  6
Continuous
 62
     1
100
AcDbCircle
 10
24.042917
 20
45.00622299999999
 30
0.0
 40
0.015
100
AcDbArc
 50
90.0
 51
180.0
  0
ARC
  5
78
330
183
100
AcDbEntity
  8
GAIKEI
  6
Continuous
 62
     1
100
AcDbCircle
 10
24.042917
 20
44.68622299999999
 30
0.0
 40
0.015
100
AcDbArc
 50
180.0
 51
270.0
  0
ARC
  5
79
330
183
100
AcDbEntity
  8
GAIKEI
  6
Continuous
 62
     1
100
AcDbCircle
 10
24.362917
 20
44.68622299999999
 30
0.0
 40
0.015
100
AcDbArc
 50
270.0
 51
0.0
  0
LINE
  5
7A
330
183
100
AcDbEntity
  8
GAIKEI
  6
Continuous
 62
     1
100
AcDbLine
 10
25.027917
 20
44.68622299999999
 30
0.0
 11
25.027917
 21
45.00622299999999
 31
0.0
  0
LINE
  5
7B
330
183
100
AcDbEntity
  8
GAIKEI
  6
Continuous
 62
     1
100
AcDbLine
 10
24.677917
 20
44.68622299999999
 30
0.0
 11
24.677917
 21
45.00622299999999
 31
0.0
  0
LINE
  5
7C
330
183
100
AcDbEntity
  8
GAIKEI
  6
Continuous
 62
     1
100
AcDbLine
 10
25.012917
 20
45.02122299999999
 30
0.0
 11
24.692917
 21
45.02122299999999
 31
0.0
  0
LINE
  5
7D
330
183
100
AcDbEntity
  8
GAIKEI
  6
Continuous
 62
     1
100
AcDbLine
 10
25.012917
 20
44.67122299999999
 30
0.0
 11
24.692917
 21
44.67122299999999
 31
0.0
  0
ARC
  5
7E
330
183
100
AcDbEntity
  8
GAIKEI
  6
Continuous
 62
     1
100
AcDbCircle
 10
25.012917
 20
45.00622299999999
 30
0.0
 40
0.015
100
AcDbArc
 50
0.0
 51
90.0
  0
ARC
  5
7F
330
183
100
AcDbEntity
  8
GAIKEI
  6
Continuous
 62
     1
100
AcDbCircle
 10
24.692917
 20
45.00622299999999
 30
0.0
 40
0.015
100
AcDbArc
 50
90.0
 51
180.0
  0
ARC
  5
80
330
183
100
AcDbEntity
  8
GAIKEI
  6
Continuous
 62
     1
100
AcDbCircle
 10
24.692917
 20
44.68622299999999
 30
0.0
 40
0.015
100
AcDbArc
 50
180.0
 51
270.0
  0
ARC
  5
81
330
183
100
AcDbEntity
  8
GAIKEI
  6
Continuous
 62
     1
100
AcDbCircle
 10
25.012917
 20
44.68622299999999
 30
0.0
 40
0.015
100
AcDbArc
 50
270.0
 51
0.0
  0
LINE
  5
82
330
183
100
AcDbEntity
  8
GAIKEI
  6
Continuous
 62
     1
100
AcDbLine
 10
26.327917
 20
44.68622299999999
 30
0.0
 11
26.327917
 21
45.00622299999999
 31
0.0
  0
LINE
  5
83
330
183
100
AcDbEntity
  8
GAIKEI
  6
Continuous
 62
     1
100
AcDbLine
 10
25.977917
 20
44.68622299999999
 30
0.0
 11
25.977917
 21
45.00622299999999
 31
0.0
  0
LINE
  5
84
330
183
100
AcDbEntity
  8
GAIKEI
  6
Continuous
 62
     1
100
AcDbLine
 10
26.312917
 20
45.02122299999999
 30
0.0
 11
25.992917
 21
45.02122299999999
 31
0.0
  0
LINE
  5
85
330
183
100
AcDbEntity
  8
GAIKEI
  6
Continuous
 62
     1
100
AcDbLine
 10
26.312917
 20
44.67122299999999
 30
0.0
 11
25.992917
 21
44.67122299999999
 31
0.0
  0
ARC
  5
86
330
183
100
AcDbEntity
  8
GAIKEI
  6
Continuous
 62
     1
100
AcDbCircle
 10
26.312917
 20
45.00622299999999
 30
0.0
 40
0.015
100
AcDbArc
 50
0.0
 51
90.0
  0
ARC
  5
87
330
183
100
AcDbEntity
  8
GAIKEI
  6
Continuous
 62
     1
100
AcDbCircle
 10
25.992917
 20
45.00622299999999
 30
0.0
 40
0.015
100
AcDbArc
 50
90.0
 51
180.0
  0
ARC
  5
88
330
183
100
AcDbEntity
  8
GAIKEI
  6
Continuous
 62
     1
100
AcDbCircle
 10
25.992917
 20
44.68622299999999
 30
0.0
 40
0.015
100
AcDbArc
 50
180.0
 51
270.0
  0
ARC
  5
89
330
183
100
AcDbEntity
  8
GAIKEI
  6
Continuous
 62
     1
100
AcDbCircle
 10
26.312917
 20
44.68622299999999
 30
0.0
 40
0.015
100
AcDbArc
 50
270.0
 51
0.0
  0
LINE
  5
8A
330
183
100
AcDbEntity
  8
GAIKEI
  6
Continuous
 62
     1
100
AcDbLine
 10
25.677917
 20
44.68622299999999
 30
0.0
 11
25.677917
 21
45.00622299999999
 31
0.0
  0
LINE
  5
8B
330
183
100
AcDbEntity
  8
GAIKEI
  6
Continuous
 62
     1
100
AcDbLine
 10
25.32791700000001
 20
44.68622299999999
 30
0.0
 11
25.32791700000001
 21
45.00622299999999
 31
0.0
  0
LINE
  5
8C
330
183
100
AcDbEntity
  8
GAIKEI
  6
Continuous
 62
     1
100
AcDbLine
 10
25.662917
 20
45.02122299999999
 30
0.0
 11
25.342917
 21
45.02122299999999
 31
0.0
  0
LINE
  5
8D
330
183
100
AcDbEntity
  8
GAIKEI
  6
Continuous
 62
     1
100
AcDbLine
 10
25.662917
 20
44.67122299999999
 30
0.0
 11
25.342917
 21
44.67122299999999
 31
0.0
  0
ARC
  5
8E
330
183
100
AcDbEntity
  8
GAIKEI
  6
Continuous
 62
     1
100
AcDbCircle
 10
25.662917
 20
45.00622299999999
 30
0.0
 40
0.015
100
AcDbArc
 50
0.0
 51
90.0
  0
ARC
  5
8F
330
183
100
AcDbEntity
  8
GAIKEI
  6
Continuous
 62
     1
100
AcDbCircle
 10
25.342917
 20
45.00622299999999
 30
0.0
 40
0.015
100
AcDbArc
 50
90.0
 51
180.0
  0
ARC
  5
90
330
183
100
AcDbEntity
  8
GAIKEI
  6
Continuous
 62
     1
100
AcDbCircle
 10
25.342917
 20
44.68622299999999
 30
0.0
 40
0.015
100
AcDbArc
 50
180.0
 51
270.0
  0
ARC
  5
91
330
183
100
AcDbEntity
  8
GAIKEI
  6
Continuous
 62
     1
100
AcDbCircle
 10
25.662917
 20
44.68622299999999
 30
0.0
 40
0.015
100
AcDbArc
 50
270.0
 51
0.0
  0
LINE
  5
92
330
183
100
AcDbEntity
  8
GAIKEI
  6
Continuous
100
AcDbLine
 10
109.370417
 20
45.52122299999999
 30
0.0
 11
106.545417
 21
45.52122299999999
 31
0.0
  0
LINE
  5
93
330
183
100
AcDbEntity
  8
GAIKEI
  6
Continuous
100
AcDbLine
 10
104.523106
 20
44.118534
 30
0.0
 11
106.545417
 21
44.065578
 31
0.0
  0
LINE
  5
94
330
183
100
AcDbEntity
  8
GAIKEI
  6
Continuous
100
AcDbLine
 10
104.420417
 20
44.22122299999999
 30
0.0
 11
104.523106
 21
44.118534
 31
0.0
  0
LINE
  5
95
330
183
100
AcDbEntity
  8
GAIKEI
  6
Continuous
 62
     1
100
AcDbLine
 10
104.420417
 20
44.22125799999999
 30
0.0
 11
106.545417
 21
44.165612
 31
0.0
  0
LINE
  5
96
330
183
100
AcDbEntity
  8
GAIKEI
  6
Continuous
100
AcDbLine
 10
109.370417
 20
57.691216
 30
0.0
 11
109.370417
 21
56.691216
 31
0.0
  0
LINE
  5
A4
330
183
100
AcDbEntity
  8
GAIKEI
  6
Continuous
 62
     1
100
AcDbLine
 10
9.280416999999999
 20
88.211208
 30
0.0
 11
86.980417
 21
88.211208
 31
0.0
  0
LINE
  5
A5
330
183
100
AcDbEntity
  8
GAIKEI
  6
Continuous
100
AcDbLine
 10
9.280416999999999
 20
90.31621499999999
 30
0.0
 11
86.980417
 21
90.31621499999999
 31
0.0
  0
LINE
  5
A6
330
183
100
AcDbEntity
  8
GAIKEI
  6
Continuous
 62
     1
100
AcDbLine
 10
12.272917
 20
87.346208
 30
0.0
 11
83.98791700000002
 21
87.346208
 31
0.0
  0
LINE
  5
B6
330
183
100
AcDbEntity
  8
GAIKEI
  6
Continuous
100
AcDbLine
 10
106.545417
 20
89.205254
 30
0.0
 11
109.370417
 21
88.786208
 31
0.0
  0
LINE
  5
B7
330
183
100
AcDbEntity
  8
GAIKEI
  6
Continuous
100
AcDbLine
 10
106.545417
 20
90.29185299999999
 30
0.0
 11
106.521055
 21
90.31621499999999
 31
0.0
  0
LINE
  5
B8
330
183
100
AcDbEntity
  8
GAIKEI
  6
Continuous
100
AcDbLine
 10
104.420417
 20
90.16120800000001
 30
0.0
 11
104.523106
 21
90.26389700000001
 31
0.0
  0
LINE
  5
B9
330
183
100
AcDbEntity
  8
GAIKEI
  6
Continuous
100
AcDbLine
 10
104.523106
 20
90.26389700000001
 30
0.0
 11
106.521055
 21
90.31621499999999
 31
0.0
  0
LINE
  5
BA
330
183
100
AcDbEntity
  8
GAIKEI
  6
Continuous
 62
     1
100
AcDbLine
 10
104.420417
 20
90.161174
 30
0.0
 11
106.521055
 21
90.21618100000001
 31
0.0
  0
LINE
  5
BB
330
183
100
AcDbEntity
  8
GAIKEI
  6
Continuous
100
AcDbLine
 10
106.521055
 20
90.21618100000001
 30
0.0
 11
106.545417
 21
90.24119
 31
0.0
  0
LINE
  5
BC
330
183
100
AcDbEntity
  8
GAIKEI
  6
Continuous
100
AcDbLine
 10
109.370417
 20
77.691216
 30
0.0
 11
109.370417
 21
76.691216
 31
0.0
  0
LWPOLYLINE
  5
BD
330
183
100
AcDbEntity
  8
GAIKEI
100
AcDbPolyline
 90
       36
 70
     0
 43
0.0
 10
111.674744
 20
86.37544100000001
 10
111.674744
 20
86.402867
 10
111.671485
 20
86.42649099999999
 10
111.671485
 20
86.45323899999999
 10
111.668227
 20
86.476863
 10
111.664696
 20
86.500216
 10
111.661166
 20
86.52465500000001
 10
111.658179
 20
86.55194499999998
 10
111.654921
 20
86.575298
 10
111.647589
 20
86.59892199999999
 10
111.641344
 20
86.622275
 10
111.637814
 20
86.64617099999999
 10
111.627495
 20
86.67006699999999
 10
111.620435
 20
86.69409899999999
 10
111.613918
 20
86.72071
 10
111.60387
 20
86.74107600000001
 10
111.59328
 20
86.765243
 10
111.583776
 20
86.788868
 10
111.573458
 20
86.80936899999998
 10
111.563139
 20
86.83244999999999
 10
111.553092
 20
86.85580300000001
 10
111.539514
 20
86.876712
 10
111.526209
 20
86.897078
 10
111.51236
 20
86.92097399999999
 10
111.485206
 20
86.961027
 10
111.4719
 20
86.981528
 10
111.454793
 20
86.99850000000001
 10
111.441487
 20
87.01886599999999
 10
111.424108
 20
87.03963900000001
 10
111.407001
 20
87.056067
 10
111.390437
 20
87.07643299999999
 10
111.373329
 20
87.09340500000001
 10
111.353235
 20
87.11078399999999
 10
111.336128
 20
87.127891
 10
111.316033
 20
87.144183
 10
111.302456
 20
87.153959
  0
LINE
  5
BE
330
183
100
AcDbEntity
  8
GAIKEI
100
AcDbLine
 10
110.872058
 20
86.60557500000001
 30
0.0
 11
110.872058
 21
81.60358999999999
 31
0.0
  0
LWPOLYLINE
  5
BF
330
183
100
AcDbEntity
  8
GAIKEI
100
AcDbPolyline
 90
       36
 70
     0
 43
0.0
 10
111.302456
 20
81.05466300000001
 10
111.316033
 20
81.064982
 10
111.336128
 20
81.081953
 10
111.353235
 20
81.09525899999999
 10
111.390437
 20
81.13246099999999
 10
111.407001
 20
81.14956799999999
 10
111.424108
 20
81.166947
 10
111.441487
 20
81.187313
 10
111.454793
 20
81.20672799999999
 10
111.4719
 20
81.227637
 10
111.485206
 20
81.24786699999999
 10
111.498783
 20
81.26769000000001
 10
111.51236
 20
81.28792
 10
111.526209
 20
81.30828599999999
 10
111.539514
 20
81.329059
 10
111.553092
 20
81.35268299999999
 10
111.563139
 20
81.372777
 10
111.573458
 20
81.396945
 10
111.583776
 20
81.420569
 10
111.59328
 20
81.440935
 10
111.60387
 20
81.464288
 10
111.613918
 20
81.488455
 10
111.620435
 20
81.51235099999999
 10
111.627495
 20
81.535433
 10
111.637814
 20
81.55851400000001
 10
111.641344
 20
81.58322400000001
 10
111.647589
 20
81.60630600000001
 10
111.654921
 20
81.630473
 10
111.658179
 20
81.65722
 10
111.661166
 20
81.68138799999999
 10
111.664696
 20
81.70474
 10
111.668227
 20
81.731759
 10
111.671485
 20
81.75592700000001
 10
111.671485
 20
81.779551
 10
111.674744
 20
81.806841
 10
111.674744
 20
81.830466
  0
LINE
  5
C0
330
183
100
AcDbEntity
  8
GAIKEI
100
AcDbLine
 10
109.375034
 20
79.855115
 30
0.0
 11
109.82281
 21
79.855115
 31
0.0
  0
LINE
  5
C1
330
183
100
AcDbEntity
  8
GAIKEI
100
AcDbLine
 10
109.375034
 20
81.60358999999999
 30
0.0
 11
110.872058
 21
81.60358999999999
 31
0.0
  0
LINE
  5
C2
330
183
100
AcDbEntity
  8
GAIKEI
100
AcDbLine
 10
109.82281
 20
79.855115
 30
0.0
 11
111.302456
 21
81.05466300000001
 31
0.0
  0
LINE
  5
C3
330
183
100
AcDbEntity
  8
GAIKEI
100
AcDbLine
 10
111.674744
 20
86.37544100000001
 30
0.0
 11
111.674744
 21
81.830466
 31
0.0
  0
LINE
  5
C4
330
183
100
AcDbEntity
  8
GAIKEI
100
AcDbLine
 10
109.375034
 20
88.352964
 30
0.0
 11
109.82281
 21
88.352964
 31
0.0
  0
LINE
  5
C5
330
183
100
AcDbEntity
  8
GAIKEI
100
AcDbLine
 10
109.82281
 20
88.352964
 30
0.0
 11
111.302456
 21
87.153959
 31
0.0
  0
LINE
  5
C6
330
183
100
AcDbEntity
  8
GAIKEI
100
AcDbLine
 10
109.375034
 20
86.60557500000001
 30
0.0
 11
110.872058
 21
86.60557500000001
 31
0.0
  0
LINE
  5
CC
330
183
100
AcDbEntity
  8
WAKU
 62
     4
100
AcDbLine
 10
125.0
 20
0.0
 30
0.0
 11
0.0
 21
0.0
 31
0.0
  0
LINE
  5
CE
330
183
100
AcDbEntity
  8
WAKU
 62
     1
100
AcDbLine
 10
0.0
 20
5.0
 30
0.0
 11
125.0
 21
5.0
 31
0.0
  0
LINE
  5
CF
330
183
100
AcDbEntity
  8
WAKU
 62
     1
100
AcDbLine
 10
0.0
 20
10.0
 30
0.0
 11
125.0
 21
10.0
 31
0.0
  0
LINE
  5
D0
330
183
100
AcDbEntity
  8
WAKU
 62
     1
100
AcDbLine
 10
0.0
 20
20.0
 30
0.0
 11
125.0
 21
20.0
 31
0.0
  0
LINE
  5
D1
330
183
100
AcDbEntity
  8
WAKU
 62
     1
100
AcDbLine
 10
0.0
 20
30.0
 30
0.0
 11
125.0
 21
30.0
 31
0.0
  0
LINE
  5
D2
330
183
100
AcDbEntity
  8
WAKU
 62
     4
100
AcDbLine
 10
0.0
 20
35.0
 30
0.0
 11
125.0
 21
35.0
 31
0.0
  0
LINE
  5
D3
330
183
100
AcDbEntity
  8
WAKU
 62
     1
100
AcDbLine
 10
0.0
 20
15.0
 30
0.0
 11
125.0
 21
15.0
 31
0.0
  0
LINE
  5
D4
330
183
100
AcDbEntity
  8
WAKU
 62
     1
100
AcDbLine
 10
0.0
 20
25.0
 30
0.0
 11
125.0
 21
25.0
 31
0.0
  0
LINE
  5
D7
330
183
100
AcDbEntity
  8
WAKU
 62
     4
100
AcDbLine
 10
40.0
 20
35.0
 30
0.0
 11
40.0
 21
0.0
 31
0.0
  0
LINE
  5
D8
330
183
100
AcDbEntity
  8
WAKU
 62
     4
100
AcDbLine
 10
0.0
 20
35.0
 30
0.0
 11
0.0
 21
0.0
 31
0.0
  0
TEXT
  5
D9
330
183
100
AcDbEntity
  8
MOJI1
100
AcDbText
 10
2.5
 20
16.0
 30
0.0
 40
3.0
  1
画素数
100
AcDbText
  0
TEXT
  5
DA
330
183
100
AcDbEntity
  8
MOJI1
100
AcDbText
 10
2.5
 20
31.0
 30
0.0
 40
3.0
  1
電  源
100
AcDbText
  0
TEXT
  5
DB
330
183
100
AcDbEntity
  8
MOJI1
100
AcDbText
 10
2.5
 20
26.0
 30
0.0
 40
3.0
  1
消費電力
100
AcDbText
  0
TEXT
  5
DC
330
183
100
AcDbEntity
  8
MOJI1
100
AcDbText
 10
2.5
 20
6.0
 30
0.0
 40
3.0
  1
接続端子
100
AcDbText
  0
TEXT
  5
DD
330
183
100
AcDbEntity
  8
MOJI1
100
AcDbText
 10
2.5
 20
11.0
 30
0.0
 40
3.0
  1
音声最大出力
100
AcDbText
  0
TEXT
  5
DE
330
183
100
AcDbEntity
  8
MOJI1
100
AcDbText
 10
2.5
 20
21.0
 30
0.0
 40
3.0
  1
パネルサイズ
100
AcDbText
  0
LINE
  5
DF
330
183
100
AcDbEntity
  8
WAKU
 62
     4
100
AcDbLine
 10
125.0
 20
35.0
 30
0.0
 11
125.0
 21
0.0
 31
0.0
  0
LINE
  5
E4
330
183
100
AcDbEntity
  8
SUNPO
100
AcDbLine
 10
9.280416999999999
 20
92.31621500000001
 30
0.0
 11
9.280416999999999
 21
100.316215
 31
0.0
  0
LINE
  5
E5
330
183
100
AcDbEntity
  8
SUNPO
100
AcDbLine
 10
86.980417
 20
92.31621500000001
 30
0.0
 11
86.980417
 21
100.316215
 31
0.0
  0
LINE
  5
E6
330
183
100
AcDbEntity
  8
SUNPO
100
AcDbLine
 10
11.280417
 20
98.316215
 30
0.0
 11
84.98041699999999
 21
98.316215
 31
0.0
  0
POINT
  5
EC
330
183
100
AcDbEntity
  8
SUNPO
100
AcDbPoint
 10
86.980417
 20
98.316215
 30
0.0
  0
LINE
  5
ED
330
183
100
AcDbEntity
  8
SUNPO
100
AcDbLine
 10
104.420417
 20
92.31621500000001
 30
0.0
 11
104.420417
 21
100.316215
 31
0.0
  0
LINE
  5
EE
330
183
100
AcDbEntity
  8
SUNPO
100
AcDbLine
 10
109.370417
 20
92.31621500000001
 30
0.0
 11
109.370417
 21
100.316215
 31
0.0
  0
LINE
  5
EF
330
183
100
AcDbEntity
  8
SUNPO
100
AcDbLine
 10
102.420417
 20
98.316215
 30
0.0
 11
100.420417
 21
98.316215
 31
0.0
  0
LINE
  5
F0
330
183
100
AcDbEntity
  8
SUNPO
100
AcDbLine
 10
111.370417
 20
98.316215
 30
0.0
 11
118.537084
 21
98.316215
 31
0.0
  0
LINE
  5
F1
330
183
100
AcDbEntity
  8
SUNPO
100
AcDbLine
 10
104.420417
 20
98.316215
 30
0.0
 11
109.370417
 21
98.316215
 31
0.0
  0
POINT
  5
F7
330
183
100
AcDbEntity
  8
SUNPO
100
AcDbPoint
 10
109.370417
 20
98.316215
 30
0.0
  0
LINE
  5
F8
330
183
100
AcDbEntity
  8
SUNPO
100
AcDbLine
 10
88.980417
 20
44.066216
 30
0.0
 11
96.980417
 21
44.066216
 31
0.0
  0
LINE
  5
F9
330
183
100
AcDbEntity
  8
SUNPO
100
AcDbLine
 10
88.980417
 20
90.31621499999999
 30
0.0
 11
96.980417
 21
90.31621499999999
 31
0.0
  0
LINE
  5
FA
330
183
100
AcDbEntity
  8
SUNPO
100
AcDbLine
 10
94.98041699999999
 20
46.06621599999999
 30
0.0
 11
94.98041699999999
 21
88.316215
 31
0.0
  0
POINT
  5
100
330
183
100
AcDbEntity
  8
SUNPO
100
AcDbPoint
 10
94.98041699999999
 20
90.31621499999999
 30
0.0
  0
TEXT
  5
101
330
183
100
AcDbEntity
  8
SUNPO
100
AcDbText
 10
43.547084
 20
98.81621500000001
 30
0.0
 40
2.5
  1
1554
100
AcDbText
  0
LINE
  5
102
330
183
100
AcDbEntity
  8
SUNPO
  6
ByBlock
100
AcDbLine
 10
11.280417
 20
97.78031700000001
 30
0.0
 11
9.280416999999999
 21
98.316215
 31
0.0
  0
LINE
  5
103
330
183
100
AcDbEntity
  8
SUNPO
  6
ByBlock
100
AcDbLine
 10
9.280416999999999
 20
98.316215
 30
0.0
 11
11.280417
 21
98.85211400000001
 31
0.0
  0
LINE
  5
104
330
183
100
AcDbEntity
  8
SUNPO
  6
ByBlock
100
AcDbLine
 10
9.280416999999999
 20
98.316215
 30
0.0
 11
11.280417
 21
98.316215
 31
0.0
  0
LINE
  5
105
330
183
100
AcDbEntity
  8
SUNPO
  6
ByBlock
100
AcDbLine
 10
84.98041699999999
 20
98.85211400000001
 30
0.0
 11
86.980417
 21
98.316215
 31
0.0
  0
LINE
  5
106
330
183
100
AcDbEntity
  8
SUNPO
  6
ByBlock
100
AcDbLine
 10
86.980417
 20
98.316215
 30
0.0
 11
84.98041699999999
 21
97.78031700000001
 31
0.0
  0
LINE
  5
107
330
183
100
AcDbEntity
  8
SUNPO
  6
ByBlock
100
AcDbLine
 10
86.980417
 20
98.316215
 30
0.0
 11
84.98041699999999
 21
98.316215
 31
0.0
  0
LINE
  5
108
330
183
100
AcDbEntity
  8
SUNPO
  6
ByBlock
100
AcDbLine
 10
102.420417
 20
98.85211400000001
 30
0.0
 11
104.420417
 21
98.316215
 31
0.0
  0
LINE
  5
109
330
183
100
AcDbEntity
  8
SUNPO
  6
ByBlock
100
AcDbLine
 10
104.420417
 20
98.316215
 30
0.0
 11
102.420417
 21
97.78031700000001
 31
0.0
  0
LINE
  5
10A
330
183
100
AcDbEntity
  8
SUNPO
  6
ByBlock
100
AcDbLine
 10
104.420417
 20
98.316215
 30
0.0
 11
102.420417
 21
98.316215
 31
0.0
  0
TEXT
  5
10B
330
183
100
AcDbEntity
  8
SUNPO
100
AcDbText
 10
113.870417
 20
98.81621500000001
 30
0.0
 40
2.5
  1
99
100
AcDbText
  0
LINE
  5
10C
330
183
100
AcDbEntity
  8
SUNPO
  6
ByBlock
100
AcDbLine
 10
111.370417
 20
97.78031700000001
 30
0.0
 11
109.370417
 21
98.316215
 31
0.0
  0
LINE
  5
10D
330
183
100
AcDbEntity
  8
SUNPO
  6
ByBlock
100
AcDbLine
 10
109.370417
 20
98.316215
 30
0.0
 11
111.370417
 21
98.85211400000001
 31
0.0
  0
LINE
  5
10E
330
183
100
AcDbEntity
  8
SUNPO
  6
ByBlock
100
AcDbLine
 10
109.370417
 20
98.316215
 30
0.0
 11
111.370417
 21
98.316215
 31
0.0
  0
LINE
  5
10F
330
183
100
AcDbEntity
  8
SUNPO
  6
ByBlock
100
AcDbLine
 10
95.516316
 20
46.06621599999999
 30
0.0
 11
94.98041699999999
 21
44.066216
 31
0.0
  0
LINE
  5
110
330
183
100
AcDbEntity
  8
SUNPO
  6
ByBlock
100
AcDbLine
 10
94.98041699999999
 20
44.066216
 30
0.0
 11
94.444519
 21
46.06621599999999
 31
0.0
  0
LINE
  5
111
330
183
100
AcDbEntity
  8
SUNPO
  6
ByBlock
100
AcDbLine
 10
94.98041699999999
 20
44.066216
 30
0.0
 11
94.98041699999999
 21
46.06621599999999
 31
0.0
  0
TEXT
  5
112
330
183
100
AcDbEntity
  8
SUNPO
100
AcDbText
 10
94.480417
 20
63.857882
 30
0.0
 40
2.5
  1
925
 50
90.0
100
AcDbText
  0
LINE
  5
113
330
183
100
AcDbEntity
  8
SUNPO
  6
ByBlock
100
AcDbLine
 10
94.444519
 20
88.316215
 30
0.0
 11
94.98041699999999
 21
90.31621499999999
 31
0.0
  0
LINE
  5
114
330
183
100
AcDbEntity
  8
SUNPO
  6
ByBlock
100
AcDbLine
 10
94.98041699999999
 20
90.31621499999999
 30
0.0
 11
95.516316
 21
88.316215
 31
0.0
  0
LINE
  5
115
330
183
100
AcDbEntity
  8
SUNPO
  6
ByBlock
100
AcDbLine
 10
94.98041699999999
 20
90.31621499999999
 30
0.0
 11
94.98041699999999
 21
88.316215
 31
0.0
  0
TEXT
  5
19E
330
183
100
AcDbEntity
  8
MOJI1
100
AcDbText
 10
42.5
 20
1.0
 30
0.0
 40
3.0
  1
コンポーネントビデオ、シリアル
100
AcDbText
  0
TEXT
  5
19F
330
183
100
AcDbEntity
  8
MOJI1
100
AcDbText
 10
42.5
 20
6.0
 30
0.0
 40
3.0
  1
ビデオ／Ｓビデオ／ＰＣ／外部スピーカ
100
AcDbText
  0
TEXT
  5
1A0
330
183
100
AcDbEntity
  8
MOJI1
100
AcDbText
 10
42.5
 20
11.0
 30
0.0
 40
3.0
  1
２０Ｗ（１０Ｗ＋１０Ｗ）
100
AcDbText
  0
TEXT
  5
1A1
330
183
100
AcDbEntity
  8
MOJI1
100
AcDbText
 10
42.5
 20
16.0
 30
0.0
 40
3.0
  1
１０４９０８８画素（水平１３６６×垂直７６８）
100
AcDbText
  0
TEXT
  5
1A2
330
183
100
AcDbEntity
  8
MOJI1
100
AcDbText
 10
42.5
 20
21.0
 30
0.0
 40
3.0
  1
６５Ｖ型（１６：９）
100
AcDbText
  0
TEXT
  5
1A3
330
183
100
AcDbEntity
  8
MOJI1
100
AcDbText
 10
42.5
 20
26.0
 30
0.0
 40
3.0
  1
６３５Ｗ
100
AcDbText
  0
TEXT
  5
1A4
330
183
100
AcDbEntity
  8
MOJI1
100
AcDbText
 10
42.5
 20
31.0
 30
0.0
 40
3.0
  1
ＡＣ１００Ｖ　５０Ｈｚ／６０Ｈｚ
100
AcDbText
  0
ENDSEC
  0
SECTION
  2
OBJECTS
  0
DICTIONARY
  5
16F
330
0
100
AcDbDictionary
281
     1
  3
ACAD_COLOR
350
17E
  3
ACAD_GROUP
350
170
  3
ACAD_LAYOUT
350
17C
  3
ACAD_MATERIAL
350
17D
  3
ACAD_MLINESTYLE
350
179
  3
ACAD_PLOTSETTINGS
350
17B
  3
ACAD_PLOTSTYLENAME
350
171
  3
ACDBHEADERROUNDTRIPXREC
350
1A9
  3
AcDbVariableDictionary
350
1A5
  0
DICTIONARY
  5
17E
102
{ACAD_REACTORS
330
16F
102
}
330
16F
100
AcDbDictionary
281
     1
  0
DICTIONARY
  5
170
102
{ACAD_REACTORS
330
16F
102
}
330
16F
100
AcDbDictionary
281
     1
  0
DICTIONARY
  5
17C
102
{ACAD_REACTORS
330
16F
102
}
330
16F
100
AcDbDictionary
281
     1
  3
Model
350
186
  3
レイアウト1
350
182
  0
DICTIONARY
  5
17D
102
{ACAD_REACTORS
330
16F
102
}
330
16F
100
AcDbDictionary
281
     1
  0
DICTIONARY
  5
179
102
{ACAD_REACTORS
330
16F
102
}
330
16F
100
AcDbDictionary
281
     1
  3
Standard
350
17A
  0
DICTIONARY
  5
17B
102
{ACAD_REACTORS
330
16F
102
}
330
16F
100
AcDbDictionary
281
     1
  0
ACDBDICTIONARYWDFLT
  5
171
102
{ACAD_REACTORS
330
16F
102
}
330
16F
100
AcDbDictionary
281
     1
  3
Normal
350
172
100
AcDbDictionaryWithDefault
340
172
  0
DICTIONARY
  5
1A9
102
{ACAD_REACTORS
330
16F
102
}
330
16F
100
AcDbDictionary
281
     1
  3
COLORDICT
350
1AB
  3
MATERIALDICT
350
1AA
  0
DICTIONARY
  5
1A5
102
{ACAD_REACTORS
330
16F
102
}
330
16F
100
AcDbDictionary
281
     1
  3
DIMASSOC
350
1A6
  3
PROJECTNAME
350
1A7
  0
LAYOUT
  5
186
102
{ACAD_XDICTIONARY
360
1AE
102
}
102
{ACAD_REACTORS
330
17C
102
}
330
17C
100
AcDbPlotSettings
  1

  2
\\Uranus\BFACN02M
  4

  6

 40
0.0
 41
0.0
 42
0.0
 43
0.0
 44
0.0
 45
0.0
 46
0.0
 47
0.0
 48
0.0
 49
0.0
140
0.0
141
0.0
142
1.0
143
1.0
 70
  1712
 72
     0
 73
     0
 74
     0
  7
SSC.ctb
 75
     0
147
1.0
148
0.0
149
0.0
100
AcDbLayout
  1
Model
 70
     1
 71
     0
 10
0.0
 20
0.0
 11
12.0
 21
9.0
 12
0.0
 22
0.0
 32
0.0
 14
0.0
 24
0.0
 34
0.0
 15
0.0
 25
0.0
 35
0.0
146
0.0
 13
0.0
 23
0.0
 33
0.0
 16
1.0
 26
0.0
 36
0.0
 17
0.0
 27
1.0
 37
0.0
 76
     0
330
183
  0
LAYOUT
  5
182
102
{ACAD_XDICTIONARY
360
1AC
102
}
102
{ACAD_REACTORS
330
17C
102
}
330
17C
100
AcDbPlotSettings
  1

  2
\\Uranus\BFACN02M
  4

  6

 40
0.0
 41
0.0
 42
0.0
 43
0.0
 44
0.0
 45
0.0
 46
0.0
 47
0.0
 48
0.0
 49
0.0
140
0.0
141
0.0
142
1.0
143
1.0
 70
   688
 72
     0
 73
     0
 74
     5
  7
SSC.ctb
 75
    16
147
1.0
148
0.0
149
0.0
100
AcDbLayout
  1
レイアウト1
 70
     1
 71
     1
 10
0.0
 20
0.0
 11
12.0
 21
9.0
 12
0.0
 22
0.0
 32
0.0
 14
1.000000000000000E+20
 24
1.000000000000000E+20
 34
1.000000000000000E+20
 15
-1.000000000000000E+20
 25
-1.000000000000000E+20
 35
-1.000000000000000E+20
146
0.0
 13
0.0
 23
0.0
 33
0.0
 16
1.0
 26
0.0
 36
0.0
 17
0.0
 27
1.0
 37
0.0
 76
     0
330
17F
  0
MLINESTYLE
  5
17A
102
{ACAD_REACTORS
330
179
102
}
330
179
100
AcDbMlineStyle
  2
STANDARD
 70
     0
  3

 62
   256
 51
90.0
 52
90.0
 71
     2
 49
0.5
 62
   256
  6
BYLAYER
 49
-0.5
 62
   256
  6
BYLAYER
  0
ACDBPLACEHOLDER
  5
172
102
{ACAD_REACTORS
330
171
102
}
330
171
  0
XRECORD
  5
1AB
102
{ACAD_REACTORS
330
1A9
102
}
330
1A9
100
AcDbXrecord
280
     1
340
17E
  0
XRECORD
  5
1AA
102
{ACAD_REACTORS
330
1A9
102
}
330
1A9
100
AcDbXrecord
280
     1
340
17D
  0
DICTIONARYVAR
  5
1A6
102
{ACAD_REACTORS
330
1A5
102
}
330
1A5
100
DictionaryVariables
280
     0
  1
1
  0
DICTIONARYVAR
  5
1A7
102
{ACAD_REACTORS
330
1A5
102
}
330
1A5
100
DictionaryVariables
280
     0
  1

  0
DICTIONARY
  5
1AE
330
186
100
AcDbDictionary
280
     1
281
     1
  3
ACAD_XREC_ROUNDTRIP
360
1AF
  0
DICTIONARY
  5
1AC
330
182
100
AcDbDictionary
280
     1
281
     1
  3
ACAD_XREC_ROUNDTRIP
360
1AD
  0
XRECORD
  5
1AF
102
{ACAD_REACTORS
330
1AE
102
}
330
1AE
100
AcDbXrecord
280
     1
102
SHADEPLOT
 70
     0
102
SHADEPLOTRESLEVEL
 70
     2
102
SHADEPLOTCUSTOMDPI
 70
   300
  0
XRECORD
  5
1AD
102
{ACAD_REACTORS
330
1AC
102
}
330
1AC
100
AcDbXrecord
280
     1
102
SHADEPLOT
 70
     0
102
SHADEPLOTRESLEVEL
 70
     2
102
SHADEPLOTCUSTOMDPI
 70
   300
  0
ENDSEC
  0
EOF
