  0
SECTION
  2
HEADER
  9
$ACADVER
  1
AC1009
  9
$INSBASE
 10
0.0
 20
120.499214
 30
0.0
  9
$EXTMIN
 10
-0.025904
 20
-0.020119
 30
-0.001526
  9
$EXTMAX
 10
125.020599
 20
113.028834
 30
0.0
  9
$LIMMIN
 10
-17.0
 20
0.0
  9
$LIMMAX
 10
140.0
 20
110.0
  9
$ORTHOMODE
 70
     1
  9
$REGENMODE
 70
     1
  9
$FILLMODE
 70
     1
  9
$QTEXTMODE
 70
     0
  9
$MIRRTEXT
 70
     1
  9
$DRAGMODE
 70
     2
  9
$LTSCALE
 40
1.0
  9
$OSMODE
 70
    37
  9
$ATTMODE
 70
     1
  9
$TEXTSIZE
 40
3.0
  9
$TRACEWID
 40
0.5
  9
$TEXTSTYLE
  7
STANDARD
  9
$CLAYER
  8
0
  9
$CELTYPE
  6
BYLAYER
  9
$CECOLOR
 62
   256
  9
$DIMSCALE
 40
1.0
  9
$DIMASZ
 40
2.0
  9
$DIMEXO
 40
2.0
  9
$DIMDLI
 40
8.0
  9
$DIMRND
 40
0.0
  9
$DIMDLE
 40
0.0
  9
$DIMEXE
 40
2.0
  9
$DIMTP
 40
0.0
  9
$DIMTM
 40
0.0
  9
$DIMTXT
 40
2.5
  9
$DIMCEN
 40
0.0
  9
$DIMTSZ
 40
0.0
  9
$DIMTOL
 70
     0
  9
$DIMLIM
 70
     0
  9
$DIMTIH
 70
     0
  9
$DIMTOH
 70
     0
  9
$DIMSE1
 70
     0
  9
$DIMSE2
 70
     0
  9
$DIMTAD
 70
     3
  9
$DIMZIN
 70
     0
  9
$DIMBLK
  1

  9
$DIMASO
 70
     1
  9
$DIMSHO
 70
     1
  9
$DIMPOST
  1

  9
$DIMAPOST
  1

  9
$DIMALT
 70
     0
  9
$DIMALTD
 70
     2
  9
$DIMALTF
 40
25.4
  9
$DIMLFAC
 40
1.0
  9
$DIMTOFL
 70
     1
  9
$DIMTVP
 40
0.0
  9
$DIMTIX
 70
     0
  9
$DIMSOXD
 70
     0
  9
$DIMSAH
 70
     1
  9
$DIMBLK1
  1
_OPEN30
  9
$DIMBLK2
  1
_OPEN30
  9
$DIMSTYLE
  2
STANDARD
  9
$DIMCLRD
 70
     0
  9
$DIMCLRE
 70
     0
  9
$DIMCLRT
 70
     0
  9
$DIMTFAC
 40
1.0
  9
$DIMGAP
 40
0.5
  9
$LUNITS
 70
     2
  9
$LUPREC
 70
     4
  9
$SKETCHINC
 40
0.1
  9
$FILLETRAD
 40
0.0
  9
$AUNITS
 70
     0
  9
$AUPREC
 70
     0
  9
$MENU
  1
ACAD
  9
$ELEVATION
 40
0.0
  9
$PELEVATION
 40
0.0
  9
$THICKNESS
 40
0.0
  9
$LIMCHECK
 70
     0
  9
$BLIPMODE
 70
     0
  9
$CHAMFERA
 40
0.0
  9
$CHAMFERB
 40
0.0
  9
$SKPOLY
 70
     0
  9
$TDCREATE
 40
2451815.190533
  9
$TDUPDATE
 40
2453444.491645
  9
$TDINDWG
 40
0.685099
  9
$TDUSRTIMER
 40
0.685099
  9
$USRTIMER
 70
     1
  9
$ANGBASE
 50
0.0
  9
$ANGDIR
 70
     0
  9
$PDMODE
 70
     0
  9
$PDSIZE
 40
0.0
  9
$PLINEWID
 40
0.0
  9
$COORDS
 70
     1
  9
$SPLFRAME
 70
     0
  9
$SPLINETYPE
 70
     6
  9
$SPLINESEGS
 70
     8
  9
$ATTDIA
 70
     0
  9
$ATTREQ
 70
     1
  9
$HANDLING
 70
     1
  9
$HANDSEED
  5
10FB
  9
$SURFTAB1
 70
     6
  9
$SURFTAB2
 70
     6
  9
$SURFTYPE
 70
     6
  9
$SURFU
 70
     6
  9
$SURFV
 70
     6
  9
$UCSNAME
  2

  9
$UCSORG
 10
0.0
 20
0.0
 30
0.0
  9
$UCSXDIR
 10
1.0
 20
0.0
 30
0.0
  9
$UCSYDIR
 10
0.0
 20
1.0
 30
0.0
  9
$PUCSNAME
  2

  9
$PUCSORG
 10
0.0
 20
0.0
 30
0.0
  9
$PUCSXDIR
 10
1.0
 20
0.0
 30
0.0
  9
$PUCSYDIR
 10
0.0
 20
1.0
 30
0.0
  9
$USERI1
 70
     0
  9
$USERI2
 70
     0
  9
$USERI3
 70
     0
  9
$USERI4
 70
     0
  9
$USERI5
 70
     0
  9
$USERR1
 40
0.0
  9
$USERR2
 40
0.0
  9
$USERR3
 40
0.0
  9
$USERR4
 40
0.0
  9
$USERR5
 40
0.0
  9
$WORLDVIEW
 70
     1
  9
$SHADEDGE
 70
     3
  9
$SHADEDIF
 70
    70
  9
$TILEMODE
 70
     1
  9
$MAXACTVP
 70
    48
  9
$PLIMCHECK
 70
     0
  9
$PEXTMIN
 10
1.000000E+020
 20
1.000000E+020
 30
1.000000E+020
  9
$PEXTMAX
 10
-1.000000E+020
 20
-1.000000E+020
 30
-1.000000E+020
  9
$PLIMMIN
 10
0.0
 20
0.0
  9
$PLIMMAX
 10
12.0
 20
9.0
  9
$UNITMODE
 70
     0
  9
$VISRETAIN
 70
     1
  9
$PLINEGEN
 70
     0
  9
$PSLTSCALE
 70
     1
  0
ENDSEC
  0
SECTION
  2
TABLES
  0
TABLE
  2
VPORT
 70
     2
  0
VPORT
  2
*ACTIVE
 70
     0
 10
0.0
 20
0.0
 11
1.0
 21
1.0
 12
62.497347
 22
56.504358
 13
0.0
 23
0.0
 14
1.0
 24
1.0
 15
0.0
 25
0.0
 16
0.0
 26
0.0
 36
1.0
 17
0.0
 27
0.0
 37
0.0
 40
114.055324
 41
1.58841
 42
50.0
 43
0.0
 44
0.0
 50
0.0
 51
0.0
 71
     0
 72
  1000
 73
     1
 74
     0
 75
     0
 76
     0
 77
     0
 78
     0
  0
ENDTAB
  0
TABLE
  2
LTYPE
 70
     3
  0
LTYPE
  2
CONTINUOUS
 70
     0
  3
Solid line
 72
    65
 73
     0
 40
0.0
  0
LTYPE
  2
S10
 70
     0
  3
- - - - - - - - - 1,-1,1,-1
 72
    65
 73
     4
 40
4.0
 49
1.0
 49
-1.0
 49
1.0
 49
-1.0
  0
LTYPE
  2
S130
 70
     0
  3
--- - --- - --- 3,-1,1,-1
 72
    65
 73
     4
 40
6.0
 49
3.0
 49
-1.0
 49
1.0
 49
-1.0
  0
ENDTAB
  0
TABLE
  2
LAYER
 70
     7
  0
LAYER
  2
0
 70
     0
 62
     7
  6
CONTINUOUS
  0
LAYER
  2
DEFPOINTS
 70
     0
 62
     7
  6
CONTINUOUS
  0
LAYER
  2
WAKU
 70
     0
 62
     4
  6
CONTINUOUS
  0
LAYER
  2
MOJI1
 70
     0
 62
     2
  6
CONTINUOUS
  0
LAYER
  2
GAIKEI
 70
     0
 62
     7
  6
CONTINUOUS
  0
LAYER
  2
SUNPO
 70
     0
 62
     3
  6
CONTINUOUS
  0
LAYER
  2
TOUROKU
 70
     0
 62
     1
  6
CONTINUOUS
  0
ENDTAB
  0
TABLE
  2
STYLE
 70
     1
  0
STYLE
  2
STANDARD
 70
     0
 40
0.0
 41
1.0
 50
0.0
 71
     0
 42
3.0
  3
MONOTXT.shx
  4
BIGFONT.shx
  0
ENDTAB
  0
TABLE
  2
VIEW
 70
     0
  0
ENDTAB
  0
TABLE
  2
UCS
 70
     0
  0
ENDTAB
  0
TABLE
  2
APPID
 70
     1
  0
APPID
  2
ACAD
 70
     0
  0
ENDTAB
  0
TABLE
  2
DIMSTYLE
 70
     1
  0
DIMSTYLE
  2
STANDARD
 70
     0
  3

  4

  5

  6
_OPEN30
  7
_OPEN30
 40
0.0
 41
2.0
 42
2.0
 43
8.0
 44
2.0
 45
0.0
 46
0.0
 47
0.0
 48
0.0
140
3.0
141
0.0
142
0.0
143
25.4
144
1.0
145
0.0
146
1.0
147
0.09
 71
     0
 72
     0
 73
     0
 74
     0
 75
     0
 76
     0
 77
     3
 78
     0
170
     0
171
     2
172
     0
173
     1
174
     0
175
     0
176
     0
177
     0
178
     0
  0
ENDTAB
  0
ENDSEC
  0
SECTION
  2
BLOCKS
  0
BLOCK
  8
0
  2
$MODEL_SPACE
 70
     0
 10
0.0
 20
0.0
 30
0.0
  3
$MODEL_SPACE
  1

  0
ENDBLK
  5
B
  8
0
  0
BLOCK
 67
     1
  8
0
  2
$PAPER_SPACE
 70
     0
 10
0.0
 20
0.0
 30
0.0
  3
$PAPER_SPACE
  1

  0
ENDBLK
  5
12
 67
     1
  8
0
  0
BLOCK
  8
0
  2
_OPEN30
 70
     0
 10
0.0
 20
0.0
 30
0.0
  3
_OPEN30
  1

  0
LINE
  5
2E
  8
0
  6
BYBLOCK
 62
     0
 10
-1.0
 20
0.267949
 30
0.0
 11
0.0
 21
0.0
 31
0.0
  0
LINE
  5
2F
  8
0
  6
BYBLOCK
 62
     0
 10
0.0
 20
0.0
 30
0.0
 11
-1.0
 21
-0.267949
 31
0.0
  0
LINE
  5
30
  8
0
  6
BYBLOCK
 62
     0
 10
0.0
 20
0.0
 30
0.0
 11
-1.0
 21
0.0
 31
0.0
  0
ENDBLK
  5
31
  8
0
  0
BLOCK
  8
0
  2
*D1
 70
     1
 10
0.0
 20
0.0
 30
0.0
  3
*D1
  1

  0
LINE
  5
86
  8
SUNPO
 62
     0
 10
65.833504
 20
72.90006
 30
0.0
 11
73.833504
 21
72.90006
 31
0.0
1001
ACAD
1000
RTLwPs
1070
   158
  0
LINE
  5
87
  8
SUNPO
 62
     0
 10
65.833504
 20
88.900076
 30
0.0
 11
73.833504
 21
88.900076
 31
0.0
1001
ACAD
1000
RTLwPs
1070
   158
  0
LINE
  5
88
  8
SUNPO
 62
     0
 10
71.833504
 20
74.90006
 30
0.0
 11
71.833504
 21
86.900076
 31
0.0
1001
ACAD
1000
RTLwPs
1070
   158
  0
INSERT
  5
89
  8
SUNPO
 62
     0
  2
_OPEN30
 10
71.833504
 20
72.90006
 30
0.0
 41
2.0
 42
2.0
 43
2.0
 50
270.0
1001
ACAD
1000
RTLwPs
1070
   158
  0
INSERT
  5
8A
  8
SUNPO
 62
     0
  2
_OPEN30
 10
71.833504
 20
88.900076
 30
0.0
 41
2.0
 42
2.0
 43
2.0
 50
90.0
1001
ACAD
1000
RTLwPs
1070
   158
  0
TEXT
  8
0
  40
2.5
  5
174
  62
0
  72
0
  71
0
 10
65.0835
 20
76.4751
 30
0.000000
  1
160
  0
POINT
  5
8C
  8
DEFPOINTS
 62
     0
 10
63.833504
 20
72.90006
 30
0.0
  0
POINT
  5
8D
  8
DEFPOINTS
 62
     0
 10
63.833504
 20
88.900076
 30
0.0
  0
POINT
  5
8E
  8
DEFPOINTS
 62
     0
 10
71.833504
 20
88.900076
 30
0.0
  0
ENDBLK
  5
8F
  8
0
  0
BLOCK
  8
0
  2
*D2
 70
     1
 10
0.0
 20
0.0
 30
0.0
  3
*D2
  1

  0
LINE
  5
78
  8
SUNPO
 62
     0
 10
83.740297
 20
90.893765
 30
0.0
 11
83.740297
 21
98.893765
 31
0.0
1001
ACAD
1000
RTLwPs
1070
   158
  0
LINE
  5
79
  8
SUNPO
 62
     0
 10
88.740299
 20
90.893765
 30
0.0
 11
88.740299
 21
98.893765
 31
0.0
1001
ACAD
1000
RTLwPs
1070
   158
  0
LINE
  5
7A
  8
SUNPO
 62
     0
 10
85.740297
 20
96.893765
 30
0.0
 11
86.740299
 21
96.893765
 31
0.0
1001
ACAD
1000
RTLwPs
1070
   158
  0
LINE
  5
7B
  8
SUNPO
 62
     0
 10
88.740299
 20
96.893765
 30
0.0
 11
95.906965
 21
96.893765
 31
0.0
1001
ACAD
1000
RTLwPs
1070
   158
  0
INSERT
  5
7C
  8
SUNPO
 62
     0
  2
_OPEN30
 10
83.740297
 20
96.893765
 30
0.0
 41
2.0
 42
2.0
 43
2.0
 50
180.0
1001
ACAD
1000
RTLwPs
1070
   158
  0
INSERT
  5
7D
  8
SUNPO
 62
     0
  2
_OPEN30
 10
88.740299
 20
96.893765
 30
0.0
 41
2.0
 42
2.0
 43
2.0
1001
ACAD
1000
RTLwPs
1070
   158
  0
TEXT
  8
0
  40
2.5
  5
175
  62
0
  72
0
  71
0
 10
88.3236
 20
94.2188
 30
0.000000
  1
50
  0
POINT
  5
7F
  8
DEFPOINTS
 62
     0
 10
83.740297
 20
88.893765
 30
0.0
  0
POINT
  5
80
  8
DEFPOINTS
 62
     0
 10
88.740299
 20
88.893765
 30
0.0
  0
POINT
  5
81
  8
DEFPOINTS
 62
     0
 10
88.740299
 20
96.893765
 30
0.0
  0
ENDBLK
  5
82
  8
0
  0
BLOCK
  8
0
  2
*D3
 70
     1
 10
0.0
 20
0.0
 30
0.0
  3
*D3
  1

  0
LINE
  5
6A
  8
SUNPO
 62
     0
 10
37.445445
 20
90.893765
 30
0.0
 11
37.445445
 21
98.893765
 31
0.0
1001
ACAD
1000
RTLwPs
1070
   158
  0
LINE
  5
6B
  8
SUNPO
 62
     0
 10
63.445443
 20
90.893765
 30
0.0
 11
63.445443
 21
98.893765
 31
0.0
1001
ACAD
1000
RTLwPs
1070
   158
  0
LINE
  5
6C
  8
SUNPO
 62
     0
 10
39.445445
 20
96.893765
 30
0.0
 11
61.445443
 21
96.893765
 31
0.0
1001
ACAD
1000
RTLwPs
1070
   158
  0
INSERT
  5
6D
  8
SUNPO
 62
     0
  2
_OPEN30
 10
37.445445
 20
96.893765
 30
0.0
 41
2.0
 42
2.0
 43
2.0
 50
180.0
1001
ACAD
1000
RTLwPs
1070
   158
  0
INSERT
  5
6E
  8
SUNPO
 62
     0
  2
_OPEN30
 10
63.445443
 20
96.893765
 30
0.0
 41
2.0
 42
2.0
 43
2.0
1001
ACAD
1000
RTLwPs
1070
   158
  0
TEXT
  8
0
  40
2.5
  5
176
  62
0
  72
0
  71
0
 10
45.4454
 20
94.2188
 30
0.000000
  1
260
  0
POINT
  5
70
  8
DEFPOINTS
 62
     0
 10
37.445445
 20
88.893765
 30
0.0
  0
POINT
  5
72
  8
DEFPOINTS
 62
     0
 10
63.445443
 20
88.893765
 30
0.0
  0
POINT
  5
73
  8
DEFPOINTS
 62
     0
 10
63.445443
 20
96.893765
 30
0.0
  0
ENDBLK
  5
74
  8
0
  0
ENDSEC
  0
SECTION
  2
ENTITIES
  0
TEXT
  5
34
  8
MOJI1
 10
27.0
 20
109.0
 30
0.0
 40
4.0
  1
ホーンスピーカ取付金具
  0
TEXT
  5
36
  8
TOUROKU
 10
114.333283
 20
103.0
 30
0.0
 40
2.0
  1
ＷＴＱ０１
 72
     2
 11
124.99995
 21
103.0
 31
0.0
  0
POLYLINE
  8
0
  5
177
  66
     1
 10
0.000000
 20
0.000000
 30
0.000000
  70
     8
  0
VERTEX
  8
0
  5
178
 10
61.2410
 20
54.5453
 30
0.000000
  70
    32
  0
VERTEX
  8
0
  5
179
 10
61.2362
 20
54.5453
 30
0.000000
  70
    32
  0
VERTEX
  8
0
  5
17A
 10
61.2219
 20
54.5453
 30
0.000000
  70
    32
  0
VERTEX
  8
0
  5
17B
 10
61.1983
 20
54.5453
 30
0.000000
  70
    32
  0
VERTEX
  8
0
  5
17C
 10
61.1656
 20
54.5453
 30
0.000000
  70
    32
  0
VERTEX
  8
0
  5
17D
 10
61.1238
 20
54.5453
 30
0.000000
  70
    32
  0
VERTEX
  8
0
  5
17E
 10
61.0731
 20
54.5453
 30
0.000000
  70
    32
  0
VERTEX
  8
0
  5
17F
 10
61.0137
 20
54.5453
 30
0.000000
  70
    32
  0
VERTEX
  8
0
  5
180
 10
60.9458
 20
54.5453
 30
0.000000
  70
    32
  0
VERTEX
  8
0
  5
181
 10
60.8695
 20
54.5453
 30
0.000000
  70
    32
  0
VERTEX
  8
0
  5
182
 10
60.7848
 20
54.5453
 30
0.000000
  70
    32
  0
VERTEX
  8
0
  5
183
 10
60.6921
 20
54.5453
 30
0.000000
  70
    32
  0
VERTEX
  8
0
  5
184
 10
60.5914
 20
54.5453
 30
0.000000
  70
    32
  0
VERTEX
  8
0
  5
185
 10
60.4829
 20
54.5453
 30
0.000000
  70
    32
  0
VERTEX
  8
0
  5
186
 10
60.3668
 20
54.5453
 30
0.000000
  70
    32
  0
VERTEX
  8
0
  5
187
 10
60.2431
 20
54.5453
 30
0.000000
  70
    32
  0
VERTEX
  8
0
  5
188
 10
60.1121
 20
54.5453
 30
0.000000
  70
    32
  0
VERTEX
  8
0
  5
189
 10
59.9739
 20
54.5453
 30
0.000000
  70
    32
  0
VERTEX
  8
0
  5
18A
 10
59.8286
 20
54.5453
 30
0.000000
  70
    32
  0
VERTEX
  8
0
  5
18B
 10
59.6765
 20
54.5453
 30
0.000000
  70
    32
  0
VERTEX
  8
0
  5
18C
 10
59.5176
 20
54.5453
 30
0.000000
  70
    32
  0
VERTEX
  8
0
  5
18D
 10
59.3521
 20
54.5453
 30
0.000000
  70
    32
  0
VERTEX
  8
0
  5
18E
 10
59.1801
 20
54.5453
 30
0.000000
  70
    32
  0
VERTEX
  8
0
  5
18F
 10
59.0019
 20
54.5453
 30
0.000000
  70
    32
  0
VERTEX
  8
0
  5
190
 10
58.8175
 20
54.5453
 30
0.000000
  70
    32
  0
VERTEX
  8
0
  5
191
 10
58.6271
 20
54.5453
 30
0.000000
  70
    32
  0
VERTEX
  8
0
  5
192
 10
58.4309
 20
54.5453
 30
0.000000
  70
    32
  0
VERTEX
  8
0
  5
193
 10
58.2290
 20
54.5453
 30
0.000000
  70
    32
  0
VERTEX
  8
0
  5
194
 10
58.0216
 20
54.5453
 30
0.000000
  70
    32
  0
VERTEX
  8
0
  5
195
 10
57.8088
 20
54.5453
 30
0.000000
  70
    32
  0
VERTEX
  8
0
  5
196
 10
57.5907
 20
54.5453
 30
0.000000
  70
    32
  0
VERTEX
  8
0
  5
197
 10
57.3676
 20
54.5453
 30
0.000000
  70
    32
  0
VERTEX
  8
0
  5
198
 10
57.1396
 20
54.5453
 30
0.000000
  70
    32
  0
VERTEX
  8
0
  5
199
 10
56.9068
 20
54.5453
 30
0.000000
  70
    32
  0
VERTEX
  8
0
  5
19A
 10
56.6693
 20
54.5453
 30
0.000000
  70
    32
  0
VERTEX
  8
0
  5
19B
 10
56.4274
 20
54.5453
 30
0.000000
  70
    32
  0
VERTEX
  8
0
  5
19C
 10
56.1811
 20
54.5453
 30
0.000000
  70
    32
  0
VERTEX
  8
0
  5
19D
 10
55.9307
 20
54.5453
 30
0.000000
  70
    32
  0
VERTEX
  8
0
  5
19E
 10
55.6763
 20
54.5453
 30
0.000000
  70
    32
  0
VERTEX
  8
0
  5
19F
 10
55.4180
 20
54.5453
 30
0.000000
  70
    32
  0
VERTEX
  8
0
  5
1A0
 10
55.1560
 20
54.5453
 30
0.000000
  70
    32
  0
VERTEX
  8
0
  5
1A1
 10
54.8904
 20
54.5453
 30
0.000000
  70
    32
  0
VERTEX
  8
0
  5
1A2
 10
54.6214
 20
54.5453
 30
0.000000
  70
    32
  0
VERTEX
  8
0
  5
1A3
 10
54.3492
 20
54.5453
 30
0.000000
  70
    32
  0
VERTEX
  8
0
  5
1A4
 10
54.0739
 20
54.5453
 30
0.000000
  70
    32
  0
VERTEX
  8
0
  5
1A5
 10
53.7955
 20
54.5453
 30
0.000000
  70
    32
  0
VERTEX
  8
0
  5
1A6
 10
53.5144
 20
54.5453
 30
0.000000
  70
    32
  0
VERTEX
  8
0
  5
1A7
 10
53.2307
 20
54.5453
 30
0.000000
  70
    32
  0
VERTEX
  8
0
  5
1A8
 10
52.9444
 20
54.5453
 30
0.000000
  70
    32
  0
VERTEX
  8
0
  5
1A9
 10
52.6558
 20
54.5453
 30
0.000000
  70
    32
  0
VERTEX
  8
0
  5
1AA
 10
52.3650
 20
54.5453
 30
0.000000
  70
    32
  0
VERTEX
  8
0
  5
1AB
 10
52.0721
 20
54.5453
 30
0.000000
  70
    32
  0
VERTEX
  8
0
  5
1AC
 10
51.7773
 20
54.5453
 30
0.000000
  70
    32
  0
VERTEX
  8
0
  5
1AD
 10
51.4808
 20
54.5453
 30
0.000000
  70
    32
  0
VERTEX
  8
0
  5
1AE
 10
51.1827
 20
54.5453
 30
0.000000
  70
    32
  0
VERTEX
  8
0
  5
1AF
 10
50.8832
 20
54.5453
 30
0.000000
  70
    32
  0
VERTEX
  8
0
  5
1B0
 10
50.5824
 20
54.5453
 30
0.000000
  70
    32
  0
VERTEX
  8
0
  5
1B1
 10
50.2804
 20
54.5453
 30
0.000000
  70
    32
  0
VERTEX
  8
0
  5
1B2
 10
49.9775
 20
54.5453
 30
0.000000
  70
    32
  0
VERTEX
  8
0
  5
1B3
 10
49.6737
 20
54.5453
 30
0.000000
  70
    32
  0
VERTEX
  8
0
  5
1B4
 10
49.3692
 20
54.5453
 30
0.000000
  70
    32
  0
VERTEX
  8
0
  5
1B5
 10
49.0642
 20
54.5453
 30
0.000000
  70
    32
  0
VERTEX
  8
0
  5
1B6
 10
48.7589
 20
54.5453
 30
0.000000
  70
    32
  0
VERTEX
  8
0
  5
1B7
 10
48.4533
 20
54.5453
 30
0.000000
  70
    32
  0
VERTEX
  8
0
  5
1B8
 10
48.1476
 20
54.5453
 30
0.000000
  70
    32
  0
VERTEX
  8
0
  5
1B9
 10
47.8420
 20
54.5453
 30
0.000000
  70
    32
  0
VERTEX
  8
0
  5
1BA
 10
47.5366
 20
54.5453
 30
0.000000
  70
    32
  0
VERTEX
  8
0
  5
1BB
 10
47.2316
 20
54.5453
 30
0.000000
  70
    32
  0
VERTEX
  8
0
  5
1BC
 10
46.9272
 20
54.5453
 30
0.000000
  70
    32
  0
VERTEX
  8
0
  5
1BD
 10
46.6234
 20
54.5453
 30
0.000000
  70
    32
  0
VERTEX
  8
0
  5
1BE
 10
46.3204
 20
54.5453
 30
0.000000
  70
    32
  0
VERTEX
  8
0
  5
1BF
 10
46.0185
 20
54.5453
 30
0.000000
  70
    32
  0
VERTEX
  8
0
  5
1C0
 10
45.7177
 20
54.5453
 30
0.000000
  70
    32
  0
VERTEX
  8
0
  5
1C1
 10
45.4181
 20
54.5453
 30
0.000000
  70
    32
  0
VERTEX
  8
0
  5
1C2
 10
45.1200
 20
54.5453
 30
0.000000
  70
    32
  0
VERTEX
  8
0
  5
1C3
 10
44.8235
 20
54.5453
 30
0.000000
  70
    32
  0
VERTEX
  8
0
  5
1C4
 10
44.5288
 20
54.5453
 30
0.000000
  70
    32
  0
VERTEX
  8
0
  5
1C5
 10
44.2359
 20
54.5453
 30
0.000000
  70
    32
  0
VERTEX
  8
0
  5
1C6
 10
43.9451
 20
54.5453
 30
0.000000
  70
    32
  0
VERTEX
  8
0
  5
1C7
 10
43.6565
 20
54.5453
 30
0.000000
  70
    32
  0
VERTEX
  8
0
  5
1C8
 10
43.3702
 20
54.5453
 30
0.000000
  70
    32
  0
VERTEX
  8
0
  5
1C9
 10
43.0864
 20
54.5453
 30
0.000000
  70
    32
  0
VERTEX
  8
0
  5
1CA
 10
42.8053
 20
54.5453
 30
0.000000
  70
    32
  0
VERTEX
  8
0
  5
1CB
 10
42.5270
 20
54.5453
 30
0.000000
  70
    32
  0
VERTEX
  8
0
  5
1CC
 10
42.2517
 20
54.5453
 30
0.000000
  70
    32
  0
VERTEX
  8
0
  5
1CD
 10
41.9794
 20
54.5453
 30
0.000000
  70
    32
  0
VERTEX
  8
0
  5
1CE
 10
41.7104
 20
54.5453
 30
0.000000
  70
    32
  0
VERTEX
  8
0
  5
1CF
 10
41.4449
 20
54.5453
 30
0.000000
  70
    32
  0
VERTEX
  8
0
  5
1D0
 10
41.1828
 20
54.5453
 30
0.000000
  70
    32
  0
VERTEX
  8
0
  5
1D1
 10
40.9245
 20
54.5453
 30
0.000000
  70
    32
  0
VERTEX
  8
0
  5
1D2
 10
40.6701
 20
54.5453
 30
0.000000
  70
    32
  0
VERTEX
  8
0
  5
1D3
 10
40.4197
 20
54.5453
 30
0.000000
  70
    32
  0
VERTEX
  8
0
  5
1D4
 10
40.1735
 20
54.5453
 30
0.000000
  70
    32
  0
VERTEX
  8
0
  5
1D5
 10
39.9315
 20
54.5453
 30
0.000000
  70
    32
  0
VERTEX
  8
0
  5
1D6
 10
39.6941
 20
54.5453
 30
0.000000
  70
    32
  0
VERTEX
  8
0
  5
1D7
 10
39.4613
 20
54.5453
 30
0.000000
  70
    32
  0
VERTEX
  8
0
  5
1D8
 10
39.2332
 20
54.5453
 30
0.000000
  70
    32
  0
VERTEX
  8
0
  5
1D9
 10
39.0101
 20
54.5453
 30
0.000000
  70
    32
  0
VERTEX
  8
0
  5
1DA
 10
38.7921
 20
54.5453
 30
0.000000
  70
    32
  0
VERTEX
  8
0
  5
1DB
 10
38.5793
 20
54.5453
 30
0.000000
  70
    32
  0
VERTEX
  8
0
  5
1DC
 10
38.3718
 20
54.5453
 30
0.000000
  70
    32
  0
VERTEX
  8
0
  5
1DD
 10
38.1699
 20
54.5453
 30
0.000000
  70
    32
  0
VERTEX
  8
0
  5
1DE
 10
37.9737
 20
54.5453
 30
0.000000
  70
    32
  0
VERTEX
  8
0
  5
1DF
 10
37.7834
 20
54.5453
 30
0.000000
  70
    32
  0
VERTEX
  8
0
  5
1E0
 10
37.5990
 20
54.5453
 30
0.000000
  70
    32
  0
VERTEX
  8
0
  5
1E1
 10
37.4207
 20
54.5453
 30
0.000000
  70
    32
  0
VERTEX
  8
0
  5
1E2
 10
37.2488
 20
54.5453
 30
0.000000
  70
    32
  0
VERTEX
  8
0
  5
1E3
 10
37.0833
 20
54.5453
 30
0.000000
  70
    32
  0
VERTEX
  8
0
  5
1E4
 10
36.9244
 20
54.5453
 30
0.000000
  70
    32
  0
VERTEX
  8
0
  5
1E5
 10
36.7722
 20
54.5453
 30
0.000000
  70
    32
  0
VERTEX
  8
0
  5
1E6
 10
36.6270
 20
54.5453
 30
0.000000
  70
    32
  0
VERTEX
  8
0
  5
1E7
 10
36.4887
 20
54.5453
 30
0.000000
  70
    32
  0
VERTEX
  8
0
  5
1E8
 10
36.3577
 20
54.5453
 30
0.000000
  70
    32
  0
VERTEX
  8
0
  5
1E9
 10
36.2341
 20
54.5453
 30
0.000000
  70
    32
  0
VERTEX
  8
0
  5
1EA
 10
36.1179
 20
54.5453
 30
0.000000
  70
    32
  0
VERTEX
  8
0
  5
1EB
 10
36.0094
 20
54.5453
 30
0.000000
  70
    32
  0
VERTEX
  8
0
  5
1EC
 10
35.9087
 20
54.5453
 30
0.000000
  70
    32
  0
VERTEX
  8
0
  5
1ED
 10
35.8160
 20
54.5453
 30
0.000000
  70
    32
  0
VERTEX
  8
0
  5
1EE
 10
35.7314
 20
54.5453
 30
0.000000
  70
    32
  0
VERTEX
  8
0
  5
1EF
 10
35.6550
 20
54.5453
 30
0.000000
  70
    32
  0
VERTEX
  8
0
  5
1F0
 10
35.5871
 20
54.5453
 30
0.000000
  70
    32
  0
VERTEX
  8
0
  5
1F1
 10
35.5277
 20
54.5453
 30
0.000000
  70
    32
  0
VERTEX
  8
0
  5
1F2
 10
35.4771
 20
54.5453
 30
0.000000
  70
    32
  0
VERTEX
  8
0
  5
1F3
 10
35.4353
 20
54.5453
 30
0.000000
  70
    32
  0
VERTEX
  8
0
  5
1F4
 10
35.4025
 20
54.5453
 30
0.000000
  70
    32
  0
VERTEX
  8
0
  5
1F5
 10
35.3790
 20
54.5453
 30
0.000000
  70
    32
  0
VERTEX
  8
0
  5
1F6
 10
35.3647
 20
54.5453
 30
0.000000
  70
    32
  0
VERTEX
  8
0
  5
1F7
 10
35.3599
 20
54.5453
 30
0.000000
  70
    32
  0
SEQEND
  8
0
  5
1F8
  0
POLYLINE
  8
0
  5
1F9
  66
     1
 10
0.000000
 20
0.000000
 30
0.000000
  70
     8
  0
VERTEX
  8
0
  5
1FA
 10
60.2888
 20
54.2279
 30
0.000000
  70
    32
  0
VERTEX
  8
0
  5
1FB
 10
60.2890
 20
54.2279
 30
0.000000
  70
    32
  0
VERTEX
  8
0
  5
1FC
 10
60.2896
 20
54.2279
 30
0.000000
  70
    32
  0
VERTEX
  8
0
  5
1FD
 10
60.2906
 20
54.2279
 30
0.000000
  70
    32
  0
VERTEX
  8
0
  5
1FE
 10
60.2920
 20
54.2279
 30
0.000000
  70
    32
  0
VERTEX
  8
0
  5
1FF
 10
60.2938
 20
54.2279
 30
0.000000
  70
    32
  0
VERTEX
  8
0
  5
200
 10
60.2960
 20
54.2279
 30
0.000000
  70
    32
  0
VERTEX
  8
0
  5
201
 10
60.2985
 20
54.2279
 30
0.000000
  70
    32
  0
VERTEX
  8
0
  5
202
 10
60.3014
 20
54.2279
 30
0.000000
  70
    32
  0
VERTEX
  8
0
  5
203
 10
60.3046
 20
54.2279
 30
0.000000
  70
    32
  0
VERTEX
  8
0
  5
204
 10
60.3082
 20
54.2279
 30
0.000000
  70
    32
  0
VERTEX
  8
0
  5
205
 10
60.3122
 20
54.2279
 30
0.000000
  70
    32
  0
VERTEX
  8
0
  5
206
 10
60.3164
 20
54.2279
 30
0.000000
  70
    32
  0
VERTEX
  8
0
  5
207
 10
60.3210
 20
54.2279
 30
0.000000
  70
    32
  0
VERTEX
  8
0
  5
208
 10
60.3259
 20
54.2279
 30
0.000000
  70
    32
  0
VERTEX
  8
0
  5
209
 10
60.3311
 20
54.2279
 30
0.000000
  70
    32
  0
VERTEX
  8
0
  5
20A
 10
60.3367
 20
54.2279
 30
0.000000
  70
    32
  0
VERTEX
  8
0
  5
20B
 10
60.3425
 20
54.2279
 30
0.000000
  70
    32
  0
VERTEX
  8
0
  5
20C
 10
60.3486
 20
54.2279
 30
0.000000
  70
    32
  0
VERTEX
  8
0
  5
20D
 10
60.3549
 20
54.2279
 30
0.000000
  70
    32
  0
VERTEX
  8
0
  5
20E
 10
60.3616
 20
54.2279
 30
0.000000
  70
    32
  0
VERTEX
  8
0
  5
20F
 10
60.3685
 20
54.2279
 30
0.000000
  70
    32
  0
VERTEX
  8
0
  5
210
 10
60.3757
 20
54.2279
 30
0.000000
  70
    32
  0
VERTEX
  8
0
  5
211
 10
60.3831
 20
54.2279
 30
0.000000
  70
    32
  0
VERTEX
  8
0
  5
212
 10
60.3908
 20
54.2279
 30
0.000000
  70
    32
  0
VERTEX
  8
0
  5
213
 10
60.3987
 20
54.2279
 30
0.000000
  70
    32
  0
VERTEX
  8
0
  5
214
 10
60.4068
 20
54.2279
 30
0.000000
  70
    32
  0
VERTEX
  8
0
  5
215
 10
60.4152
 20
54.2279
 30
0.000000
  70
    32
  0
VERTEX
  8
0
  5
216
 10
60.4238
 20
54.2279
 30
0.000000
  70
    32
  0
VERTEX
  8
0
  5
217
 10
60.4325
 20
54.2279
 30
0.000000
  70
    32
  0
VERTEX
  8
0
  5
218
 10
60.4415
 20
54.2279
 30
0.000000
  70
    32
  0
VERTEX
  8
0
  5
219
 10
60.4507
 20
54.2279
 30
0.000000
  70
    32
  0
VERTEX
  8
0
  5
21A
 10
60.4600
 20
54.2279
 30
0.000000
  70
    32
  0
VERTEX
  8
0
  5
21B
 10
60.4695
 20
54.2279
 30
0.000000
  70
    32
  0
VERTEX
  8
0
  5
21C
 10
60.4792
 20
54.2279
 30
0.000000
  70
    32
  0
VERTEX
  8
0
  5
21D
 10
60.4891
 20
54.2279
 30
0.000000
  70
    32
  0
VERTEX
  8
0
  5
21E
 10
60.4991
 20
54.2279
 30
0.000000
  70
    32
  0
VERTEX
  8
0
  5
21F
 10
60.5092
 20
54.2279
 30
0.000000
  70
    32
  0
VERTEX
  8
0
  5
220
 10
60.5195
 20
54.2279
 30
0.000000
  70
    32
  0
VERTEX
  8
0
  5
221
 10
60.5299
 20
54.2279
 30
0.000000
  70
    32
  0
VERTEX
  8
0
  5
222
 10
60.5405
 20
54.2279
 30
0.000000
  70
    32
  0
VERTEX
  8
0
  5
223
 10
60.5512
 20
54.2279
 30
0.000000
  70
    32
  0
VERTEX
  8
0
  5
224
 10
60.5619
 20
54.2279
 30
0.000000
  70
    32
  0
VERTEX
  8
0
  5
225
 10
60.5728
 20
54.2279
 30
0.000000
  70
    32
  0
VERTEX
  8
0
  5
226
 10
60.5838
 20
54.2279
 30
0.000000
  70
    32
  0
VERTEX
  8
0
  5
227
 10
60.5948
 20
54.2279
 30
0.000000
  70
    32
  0
VERTEX
  8
0
  5
228
 10
60.6060
 20
54.2279
 30
0.000000
  70
    32
  0
VERTEX
  8
0
  5
229
 10
60.6172
 20
54.2279
 30
0.000000
  70
    32
  0
VERTEX
  8
0
  5
22A
 10
60.6285
 20
54.2279
 30
0.000000
  70
    32
  0
VERTEX
  8
0
  5
22B
 10
60.6398
 20
54.2279
 30
0.000000
  70
    32
  0
VERTEX
  8
0
  5
22C
 10
60.6512
 20
54.2279
 30
0.000000
  70
    32
  0
VERTEX
  8
0
  5
22D
 10
60.6626
 20
54.2279
 30
0.000000
  70
    32
  0
VERTEX
  8
0
  5
22E
 10
60.6741
 20
54.2279
 30
0.000000
  70
    32
  0
VERTEX
  8
0
  5
22F
 10
60.6855
 20
54.2279
 30
0.000000
  70
    32
  0
VERTEX
  8
0
  5
230
 10
60.6971
 20
54.2279
 30
0.000000
  70
    32
  0
VERTEX
  8
0
  5
231
 10
60.7086
 20
54.2279
 30
0.000000
  70
    32
  0
VERTEX
  8
0
  5
232
 10
60.7201
 20
54.2279
 30
0.000000
  70
    32
  0
VERTEX
  8
0
  5
233
 10
60.7316
 20
54.2279
 30
0.000000
  70
    32
  0
VERTEX
  8
0
  5
234
 10
60.7431
 20
54.2279
 30
0.000000
  70
    32
  0
VERTEX
  8
0
  5
235
 10
60.7546
 20
54.2279
 30
0.000000
  70
    32
  0
VERTEX
  8
0
  5
236
 10
60.7661
 20
54.2279
 30
0.000000
  70
    32
  0
VERTEX
  8
0
  5
237
 10
60.7776
 20
54.2279
 30
0.000000
  70
    32
  0
VERTEX
  8
0
  5
238
 10
60.7890
 20
54.2279
 30
0.000000
  70
    32
  0
VERTEX
  8
0
  5
239
 10
60.8003
 20
54.2279
 30
0.000000
  70
    32
  0
VERTEX
  8
0
  5
23A
 10
60.8116
 20
54.2279
 30
0.000000
  70
    32
  0
VERTEX
  8
0
  5
23B
 10
60.8229
 20
54.2279
 30
0.000000
  70
    32
  0
VERTEX
  8
0
  5
23C
 10
60.8340
 20
54.2279
 30
0.000000
  70
    32
  0
VERTEX
  8
0
  5
23D
 10
60.8451
 20
54.2279
 30
0.000000
  70
    32
  0
VERTEX
  8
0
  5
23E
 10
60.8562
 20
54.2279
 30
0.000000
  70
    32
  0
VERTEX
  8
0
  5
23F
 10
60.8671
 20
54.2279
 30
0.000000
  70
    32
  0
VERTEX
  8
0
  5
240
 10
60.8779
 20
54.2279
 30
0.000000
  70
    32
  0
VERTEX
  8
0
  5
241
 10
60.8886
 20
54.2279
 30
0.000000
  70
    32
  0
VERTEX
  8
0
  5
242
 10
60.8992
 20
54.2279
 30
0.000000
  70
    32
  0
VERTEX
  8
0
  5
243
 10
60.9097
 20
54.2279
 30
0.000000
  70
    32
  0
VERTEX
  8
0
  5
244
 10
60.9201
 20
54.2279
 30
0.000000
  70
    32
  0
VERTEX
  8
0
  5
245
 10
60.9303
 20
54.2279
 30
0.000000
  70
    32
  0
VERTEX
  8
0
  5
246
 10
60.9404
 20
54.2279
 30
0.000000
  70
    32
  0
VERTEX
  8
0
  5
247
 10
60.9503
 20
54.2279
 30
0.000000
  70
    32
  0
VERTEX
  8
0
  5
248
 10
60.9601
 20
54.2279
 30
0.000000
  70
    32
  0
VERTEX
  8
0
  5
249
 10
60.9697
 20
54.2279
 30
0.000000
  70
    32
  0
VERTEX
  8
0
  5
24A
 10
60.9791
 20
54.2279
 30
0.000000
  70
    32
  0
VERTEX
  8
0
  5
24B
 10
60.9884
 20
54.2279
 30
0.000000
  70
    32
  0
VERTEX
  8
0
  5
24C
 10
60.9975
 20
54.2279
 30
0.000000
  70
    32
  0
VERTEX
  8
0
  5
24D
 10
61.0063
 20
54.2279
 30
0.000000
  70
    32
  0
VERTEX
  8
0
  5
24E
 10
61.0150
 20
54.2279
 30
0.000000
  70
    32
  0
VERTEX
  8
0
  5
24F
 10
61.0235
 20
54.2279
 30
0.000000
  70
    32
  0
VERTEX
  8
0
  5
250
 10
61.0317
 20
54.2279
 30
0.000000
  70
    32
  0
VERTEX
  8
0
  5
251
 10
61.0397
 20
54.2279
 30
0.000000
  70
    32
  0
VERTEX
  8
0
  5
252
 10
61.0475
 20
54.2279
 30
0.000000
  70
    32
  0
VERTEX
  8
0
  5
253
 10
61.0551
 20
54.2279
 30
0.000000
  70
    32
  0
VERTEX
  8
0
  5
254
 10
61.0624
 20
54.2279
 30
0.000000
  70
    32
  0
VERTEX
  8
0
  5
255
 10
61.0694
 20
54.2279
 30
0.000000
  70
    32
  0
VERTEX
  8
0
  5
256
 10
61.0762
 20
54.2279
 30
0.000000
  70
    32
  0
VERTEX
  8
0
  5
257
 10
61.0827
 20
54.2279
 30
0.000000
  70
    32
  0
VERTEX
  8
0
  5
258
 10
61.0890
 20
54.2279
 30
0.000000
  70
    32
  0
VERTEX
  8
0
  5
259
 10
61.0949
 20
54.2279
 30
0.000000
  70
    32
  0
VERTEX
  8
0
  5
25A
 10
61.1006
 20
54.2279
 30
0.000000
  70
    32
  0
VERTEX
  8
0
  5
25B
 10
61.1060
 20
54.2279
 30
0.000000
  70
    32
  0
VERTEX
  8
0
  5
25C
 10
61.1110
 20
54.2279
 30
0.000000
  70
    32
  0
VERTEX
  8
0
  5
25D
 10
61.1158
 20
54.2279
 30
0.000000
  70
    32
  0
VERTEX
  8
0
  5
25E
 10
61.1202
 20
54.2279
 30
0.000000
  70
    32
  0
VERTEX
  8
0
  5
25F
 10
61.1243
 20
54.2279
 30
0.000000
  70
    32
  0
VERTEX
  8
0
  5
260
 10
61.1281
 20
54.2279
 30
0.000000
  70
    32
  0
VERTEX
  8
0
  5
261
 10
61.1315
 20
54.2279
 30
0.000000
  70
    32
  0
VERTEX
  8
0
  5
262
 10
61.1345
 20
54.2279
 30
0.000000
  70
    32
  0
VERTEX
  8
0
  5
263
 10
61.1373
 20
54.2279
 30
0.000000
  70
    32
  0
VERTEX
  8
0
  5
264
 10
61.1396
 20
54.2279
 30
0.000000
  70
    32
  0
VERTEX
  8
0
  5
265
 10
61.1416
 20
54.2279
 30
0.000000
  70
    32
  0
VERTEX
  8
0
  5
266
 10
61.1432
 20
54.2279
 30
0.000000
  70
    32
  0
VERTEX
  8
0
  5
267
 10
61.1444
 20
54.2279
 30
0.000000
  70
    32
  0
VERTEX
  8
0
  5
268
 10
61.1452
 20
54.2279
 30
0.000000
  70
    32
  0
VERTEX
  8
0
  5
269
 10
61.1456
 20
54.2279
 30
0.000000
  70
    32
  0
VERTEX
  8
0
  5
26A
 10
61.1498
 20
54.2279
 30
0.000000
  70
    32
  0
VERTEX
  8
0
  5
26B
 10
61.1579
 20
54.2278
 30
0.000000
  70
    32
  0
VERTEX
  8
0
  5
26C
 10
61.1658
 20
54.2276
 30
0.000000
  70
    32
  0
VERTEX
  8
0
  5
26D
 10
61.1736
 20
54.2273
 30
0.000000
  70
    32
  0
VERTEX
  8
0
  5
26E
 10
61.1813
 20
54.2268
 30
0.000000
  70
    32
  0
VERTEX
  8
0
  5
26F
 10
61.1888
 20
54.2263
 30
0.000000
  70
    32
  0
VERTEX
  8
0
  5
270
 10
61.1961
 20
54.2256
 30
0.000000
  70
    32
  0
VERTEX
  8
0
  5
271
 10
61.2033
 20
54.2249
 30
0.000000
  70
    32
  0
VERTEX
  8
0
  5
272
 10
61.2104
 20
54.2240
 30
0.000000
  70
    32
  0
VERTEX
  8
0
  5
273
 10
61.2173
 20
54.2231
 30
0.000000
  70
    32
  0
VERTEX
  8
0
  5
274
 10
61.2241
 20
54.2221
 30
0.000000
  70
    32
  0
VERTEX
  8
0
  5
275
 10
61.2307
 20
54.2209
 30
0.000000
  70
    32
  0
VERTEX
  8
0
  5
276
 10
61.2372
 20
54.2197
 30
0.000000
  70
    32
  0
VERTEX
  8
0
  5
277
 10
61.2435
 20
54.2184
 30
0.000000
  70
    32
  0
VERTEX
  8
0
  5
278
 10
61.2498
 20
54.2170
 30
0.000000
  70
    32
  0
VERTEX
  8
0
  5
279
 10
61.2558
 20
54.2155
 30
0.000000
  70
    32
  0
VERTEX
  8
0
  5
27A
 10
61.2618
 20
54.2140
 30
0.000000
  70
    32
  0
VERTEX
  8
0
  5
27B
 10
61.2676
 20
54.2123
 30
0.000000
  70
    32
  0
VERTEX
  8
0
  5
27C
 10
61.2733
 20
54.2106
 30
0.000000
  70
    32
  0
VERTEX
  8
0
  5
27D
 10
61.2789
 20
54.2088
 30
0.000000
  70
    32
  0
VERTEX
  8
0
  5
27E
 10
61.2843
 20
54.2069
 30
0.000000
  70
    32
  0
VERTEX
  8
0
  5
27F
 10
61.2896
 20
54.2050
 30
0.000000
  70
    32
  0
VERTEX
  8
0
  5
280
 10
61.2948
 20
54.2030
 30
0.000000
  70
    32
  0
VERTEX
  8
0
  5
281
 10
61.2999
 20
54.2009
 30
0.000000
  70
    32
  0
VERTEX
  8
0
  5
282
 10
61.3048
 20
54.1987
 30
0.000000
  70
    32
  0
VERTEX
  8
0
  5
283
 10
61.3096
 20
54.1965
 30
0.000000
  70
    32
  0
VERTEX
  8
0
  5
284
 10
61.3143
 20
54.1943
 30
0.000000
  70
    32
  0
VERTEX
  8
0
  5
285
 10
61.3189
 20
54.1919
 30
0.000000
  70
    32
  0
VERTEX
  8
0
  5
286
 10
61.3234
 20
54.1895
 30
0.000000
  70
    32
  0
VERTEX
  8
0
  5
287
 10
61.3277
 20
54.1871
 30
0.000000
  70
    32
  0
VERTEX
  8
0
  5
288
 10
61.3320
 20
54.1846
 30
0.000000
  70
    32
  0
VERTEX
  8
0
  5
289
 10
61.3361
 20
54.1820
 30
0.000000
  70
    32
  0
VERTEX
  8
0
  5
28A
 10
61.3401
 20
54.1794
 30
0.000000
  70
    32
  0
VERTEX
  8
0
  5
28B
 10
61.3441
 20
54.1768
 30
0.000000
  70
    32
  0
VERTEX
  8
0
  5
28C
 10
61.3479
 20
54.1741
 30
0.000000
  70
    32
  0
VERTEX
  8
0
  5
28D
 10
61.3516
 20
54.1714
 30
0.000000
  70
    32
  0
VERTEX
  8
0
  5
28E
 10
61.3552
 20
54.1686
 30
0.000000
  70
    32
  0
VERTEX
  8
0
  5
28F
 10
61.3587
 20
54.1658
 30
0.000000
  70
    32
  0
VERTEX
  8
0
  5
290
 10
61.3621
 20
54.1629
 30
0.000000
  70
    32
  0
VERTEX
  8
0
  5
291
 10
61.3654
 20
54.1600
 30
0.000000
  70
    32
  0
VERTEX
  8
0
  5
292
 10
61.3686
 20
54.1571
 30
0.000000
  70
    32
  0
VERTEX
  8
0
  5
293
 10
61.3717
 20
54.1541
 30
0.000000
  70
    32
  0
VERTEX
  8
0
  5
294
 10
61.3747
 20
54.1511
 30
0.000000
  70
    32
  0
VERTEX
  8
0
  5
295
 10
61.3776
 20
54.1481
 30
0.000000
  70
    32
  0
VERTEX
  8
0
  5
296
 10
61.3804
 20
54.1451
 30
0.000000
  70
    32
  0
VERTEX
  8
0
  5
297
 10
61.3831
 20
54.1420
 30
0.000000
  70
    32
  0
VERTEX
  8
0
  5
298
 10
61.3858
 20
54.1390
 30
0.000000
  70
    32
  0
VERTEX
  8
0
  5
299
 10
61.3883
 20
54.1359
 30
0.000000
  70
    32
  0
VERTEX
  8
0
  5
29A
 10
61.3908
 20
54.1327
 30
0.000000
  70
    32
  0
VERTEX
  8
0
  5
29B
 10
61.3932
 20
54.1296
 30
0.000000
  70
    32
  0
VERTEX
  8
0
  5
29C
 10
61.3955
 20
54.1265
 30
0.000000
  70
    32
  0
VERTEX
  8
0
  5
29D
 10
61.3977
 20
54.1233
 30
0.000000
  70
    32
  0
VERTEX
  8
0
  5
29E
 10
61.3998
 20
54.1202
 30
0.000000
  70
    32
  0
VERTEX
  8
0
  5
29F
 10
61.4019
 20
54.1170
 30
0.000000
  70
    32
  0
VERTEX
  8
0
  5
2A0
 10
61.4039
 20
54.1138
 30
0.000000
  70
    32
  0
VERTEX
  8
0
  5
2A1
 10
61.4058
 20
54.1106
 30
0.000000
  70
    32
  0
VERTEX
  8
0
  5
2A2
 10
61.4076
 20
54.1075
 30
0.000000
  70
    32
  0
VERTEX
  8
0
  5
2A3
 10
61.4094
 20
54.1043
 30
0.000000
  70
    32
  0
VERTEX
  8
0
  5
2A4
 10
61.4111
 20
54.1011
 30
0.000000
  70
    32
  0
VERTEX
  8
0
  5
2A5
 10
61.4127
 20
54.0979
 30
0.000000
  70
    32
  0
VERTEX
  8
0
  5
2A6
 10
61.4142
 20
54.0948
 30
0.000000
  70
    32
  0
VERTEX
  8
0
  5
2A7
 10
61.4157
 20
54.0916
 30
0.000000
  70
    32
  0
VERTEX
  8
0
  5
2A8
 10
61.4171
 20
54.0885
 30
0.000000
  70
    32
  0
VERTEX
  8
0
  5
2A9
 10
61.4185
 20
54.0854
 30
0.000000
  70
    32
  0
VERTEX
  8
0
  5
2AA
 10
61.4198
 20
54.0823
 30
0.000000
  70
    32
  0
VERTEX
  8
0
  5
2AB
 10
61.4210
 20
54.0792
 30
0.000000
  70
    32
  0
VERTEX
  8
0
  5
2AC
 10
61.4222
 20
54.0761
 30
0.000000
  70
    32
  0
VERTEX
  8
0
  5
2AD
 10
61.4233
 20
54.0730
 30
0.000000
  70
    32
  0
VERTEX
  8
0
  5
2AE
 10
61.4243
 20
54.0700
 30
0.000000
  70
    32
  0
VERTEX
  8
0
  5
2AF
 10
61.4253
 20
54.0670
 30
0.000000
  70
    32
  0
VERTEX
  8
0
  5
2B0
 10
61.4263
 20
54.0641
 30
0.000000
  70
    32
  0
VERTEX
  8
0
  5
2B1
 10
61.4272
 20
54.0611
 30
0.000000
  70
    32
  0
VERTEX
  8
0
  5
2B2
 10
61.4280
 20
54.0582
 30
0.000000
  70
    32
  0
VERTEX
  8
0
  5
2B3
 10
61.4288
 20
54.0553
 30
0.000000
  70
    32
  0
VERTEX
  8
0
  5
2B4
 10
61.4296
 20
54.0525
 30
0.000000
  70
    32
  0
VERTEX
  8
0
  5
2B5
 10
61.4302
 20
54.0497
 30
0.000000
  70
    32
  0
VERTEX
  8
0
  5
2B6
 10
61.4309
 20
54.0469
 30
0.000000
  70
    32
  0
VERTEX
  8
0
  5
2B7
 10
61.4315
 20
54.0442
 30
0.000000
  70
    32
  0
VERTEX
  8
0
  5
2B8
 10
61.4321
 20
54.0416
 30
0.000000
  70
    32
  0
VERTEX
  8
0
  5
2B9
 10
61.4326
 20
54.0389
 30
0.000000
  70
    32
  0
VERTEX
  8
0
  5
2BA
 10
61.4331
 20
54.0363
 30
0.000000
  70
    32
  0
VERTEX
  8
0
  5
2BB
 10
61.4335
 20
54.0338
 30
0.000000
  70
    32
  0
VERTEX
  8
0
  5
2BC
 10
61.4339
 20
54.0313
 30
0.000000
  70
    32
  0
VERTEX
  8
0
  5
2BD
 10
61.4343
 20
54.0289
 30
0.000000
  70
    32
  0
VERTEX
  8
0
  5
2BE
 10
61.4347
 20
54.0266
 30
0.000000
  70
    32
  0
VERTEX
  8
0
  5
2BF
 10
61.4350
 20
54.0243
 30
0.000000
  70
    32
  0
VERTEX
  8
0
  5
2C0
 10
61.4353
 20
54.0220
 30
0.000000
  70
    32
  0
VERTEX
  8
0
  5
2C1
 10
61.4355
 20
54.0198
 30
0.000000
  70
    32
  0
VERTEX
  8
0
  5
2C2
 10
61.4357
 20
54.0177
 30
0.000000
  70
    32
  0
VERTEX
  8
0
  5
2C3
 10
61.4359
 20
54.0157
 30
0.000000
  70
    32
  0
VERTEX
  8
0
  5
2C4
 10
61.4361
 20
54.0137
 30
0.000000
  70
    32
  0
VERTEX
  8
0
  5
2C5
 10
61.4363
 20
54.0118
 30
0.000000
  70
    32
  0
VERTEX
  8
0
  5
2C6
 10
61.4364
 20
54.0100
 30
0.000000
  70
    32
  0
VERTEX
  8
0
  5
2C7
 10
61.4365
 20
54.0082
 30
0.000000
  70
    32
  0
VERTEX
  8
0
  5
2C8
 10
61.4366
 20
54.0065
 30
0.000000
  70
    32
  0
VERTEX
  8
0
  5
2C9
 10
61.4367
 20
54.0049
 30
0.000000
  70
    32
  0
VERTEX
  8
0
  5
2CA
 10
61.4367
 20
54.0034
 30
0.000000
  70
    32
  0
VERTEX
  8
0
  5
2CB
 10
61.4368
 20
54.0020
 30
0.000000
  70
    32
  0
VERTEX
  8
0
  5
2CC
 10
61.4368
 20
54.0006
 30
0.000000
  70
    32
  0
VERTEX
  8
0
  5
2CD
 10
61.4368
 20
53.9993
 30
0.000000
  70
    32
  0
VERTEX
  8
0
  5
2CE
 10
61.4368
 20
53.9982
 30
0.000000
  70
    32
  0
VERTEX
  8
0
  5
2CF
 10
61.4368
 20
53.9971
 30
0.000000
  70
    32
  0
VERTEX
  8
0
  5
2D0
 10
61.4368
 20
53.9961
 30
0.000000
  70
    32
  0
VERTEX
  8
0
  5
2D1
 10
61.4368
 20
53.9952
 30
0.000000
  70
    32
  0
VERTEX
  8
0
  5
2D2
 10
61.4368
 20
53.9944
 30
0.000000
  70
    32
  0
VERTEX
  8
0
  5
2D3
 10
61.4368
 20
53.9937
 30
0.000000
  70
    32
  0
VERTEX
  8
0
  5
2D4
 10
61.4367
 20
53.9931
 30
0.000000
  70
    32
  0
VERTEX
  8
0
  5
2D5
 10
61.4367
 20
53.9926
 30
0.000000
  70
    32
  0
VERTEX
  8
0
  5
2D6
 10
61.4367
 20
53.9922
 30
0.000000
  70
    32
  0
VERTEX
  8
0
  5
2D7
 10
61.4367
 20
53.9919
 30
0.000000
  70
    32
  0
VERTEX
  8
0
  5
2D8
 10
61.4367
 20
53.9918
 30
0.000000
  70
    32
  0
VERTEX
  8
0
  5
2D9
 10
61.4367
 20
53.9917
 30
0.000000
  70
    32
  0
SEQEND
  8
0
  5
2DA
  0
LINE
  5
3A
  8
GAIKEI
 10
61.833504
 20
67.400846
 30
0.0
 11
43.421649
 21
67.400846
 31
0.0
  0
LINE
  5
3B
  8
GAIKEI
 10
43.425203
 20
83.400862
 30
0.0
 11
61.833504
 21
83.400862
 31
0.0
  0
LINE
  5
3C
  8
GAIKEI
 62
     1
 10
61.198638
 20
54.277375
 30
0.0
 11
52.748909
 21
54.277375
 31
0.0
  0
POLYLINE
  8
0
  5
2DB
  62
1
  66
     1
 10
0.000000
 20
0.000000
 30
0.000000
  70
     8
  0
VERTEX
  8
0
  5
2DC
 10
47.5167
 20
71.2939
 30
0.000000
  70
    32
  0
VERTEX
  8
0
  5
2DD
 10
47.5196
 20
71.2967
 30
0.000000
  70
    32
  0
VERTEX
  8
0
  5
2DE
 10
47.5225
 20
71.2997
 30
0.000000
  70
    32
  0
VERTEX
  8
0
  5
2DF
 10
47.5254
 20
71.3026
 30
0.000000
  70
    32
  0
VERTEX
  8
0
  5
2E0
 10
47.5282
 20
71.3056
 30
0.000000
  70
    32
  0
VERTEX
  8
0
  5
2E1
 10
47.5311
 20
71.3085
 30
0.000000
  70
    32
  0
VERTEX
  8
0
  5
2E2
 10
47.5339
 20
71.3115
 30
0.000000
  70
    32
  0
VERTEX
  8
0
  5
2E3
 10
47.5367
 20
71.3145
 30
0.000000
  70
    32
  0
VERTEX
  8
0
  5
2E4
 10
47.5394
 20
71.3176
 30
0.000000
  70
    32
  0
VERTEX
  8
0
  5
2E5
 10
47.5422
 20
71.3206
 30
0.000000
  70
    32
  0
VERTEX
  8
0
  5
2E6
 10
47.5449
 20
71.3237
 30
0.000000
  70
    32
  0
VERTEX
  8
0
  5
2E7
 10
47.5476
 20
71.3268
 30
0.000000
  70
    32
  0
VERTEX
  8
0
  5
2E8
 10
47.5503
 20
71.3299
 30
0.000000
  70
    32
  0
VERTEX
  8
0
  5
2E9
 10
47.5530
 20
71.3331
 30
0.000000
  70
    32
  0
VERTEX
  8
0
  5
2EA
 10
47.5556
 20
71.3362
 30
0.000000
  70
    32
  0
VERTEX
  8
0
  5
2EB
 10
47.5582
 20
71.3394
 30
0.000000
  70
    32
  0
VERTEX
  8
0
  5
2EC
 10
47.5608
 20
71.3426
 30
0.000000
  70
    32
  0
VERTEX
  8
0
  5
2ED
 10
47.5634
 20
71.3458
 30
0.000000
  70
    32
  0
VERTEX
  8
0
  5
2EE
 10
47.5659
 20
71.3491
 30
0.000000
  70
    32
  0
VERTEX
  8
0
  5
2EF
 10
47.5684
 20
71.3523
 30
0.000000
  70
    32
  0
VERTEX
  8
0
  5
2F0
 10
47.5709
 20
71.3556
 30
0.000000
  70
    32
  0
VERTEX
  8
0
  5
2F1
 10
47.5734
 20
71.3589
 30
0.000000
  70
    32
  0
VERTEX
  8
0
  5
2F2
 10
47.5759
 20
71.3622
 30
0.000000
  70
    32
  0
VERTEX
  8
0
  5
2F3
 10
47.5783
 20
71.3655
 30
0.000000
  70
    32
  0
VERTEX
  8
0
  5
2F4
 10
47.5807
 20
71.3689
 30
0.000000
  70
    32
  0
VERTEX
  8
0
  5
2F5
 10
47.5831
 20
71.3722
 30
0.000000
  70
    32
  0
VERTEX
  8
0
  5
2F6
 10
47.5854
 20
71.3756
 30
0.000000
  70
    32
  0
VERTEX
  8
0
  5
2F7
 10
47.5878
 20
71.3790
 30
0.000000
  70
    32
  0
VERTEX
  8
0
  5
2F8
 10
47.5901
 20
71.3825
 30
0.000000
  70
    32
  0
VERTEX
  8
0
  5
2F9
 10
47.5924
 20
71.3859
 30
0.000000
  70
    32
  0
VERTEX
  8
0
  5
2FA
 10
47.5946
 20
71.3894
 30
0.000000
  70
    32
  0
VERTEX
  8
0
  5
2FB
 10
47.5969
 20
71.3928
 30
0.000000
  70
    32
  0
VERTEX
  8
0
  5
2FC
 10
47.5991
 20
71.3963
 30
0.000000
  70
    32
  0
VERTEX
  8
0
  5
2FD
 10
47.6013
 20
71.3998
 30
0.000000
  70
    32
  0
VERTEX
  8
0
  5
2FE
 10
47.6034
 20
71.4034
 30
0.000000
  70
    32
  0
VERTEX
  8
0
  5
2FF
 10
47.6055
 20
71.4069
 30
0.000000
  70
    32
  0
VERTEX
  8
0
  5
300
 10
47.6077
 20
71.4105
 30
0.000000
  70
    32
  0
VERTEX
  8
0
  5
301
 10
47.6097
 20
71.4140
 30
0.000000
  70
    32
  0
VERTEX
  8
0
  5
302
 10
47.6118
 20
71.4176
 30
0.000000
  70
    32
  0
VERTEX
  8
0
  5
303
 10
47.6138
 20
71.4212
 30
0.000000
  70
    32
  0
VERTEX
  8
0
  5
304
 10
47.6158
 20
71.4249
 30
0.000000
  70
    32
  0
VERTEX
  8
0
  5
305
 10
47.6178
 20
71.4285
 30
0.000000
  70
    32
  0
VERTEX
  8
0
  5
306
 10
47.6198
 20
71.4322
 30
0.000000
  70
    32
  0
VERTEX
  8
0
  5
307
 10
47.6217
 20
71.4358
 30
0.000000
  70
    32
  0
VERTEX
  8
0
  5
308
 10
47.6236
 20
71.4395
 30
0.000000
  70
    32
  0
VERTEX
  8
0
  5
309
 10
47.6255
 20
71.4432
 30
0.000000
  70
    32
  0
VERTEX
  8
0
  5
30A
 10
47.6273
 20
71.4470
 30
0.000000
  70
    32
  0
VERTEX
  8
0
  5
30B
 10
47.6292
 20
71.4507
 30
0.000000
  70
    32
  0
VERTEX
  8
0
  5
30C
 10
47.6310
 20
71.4544
 30
0.000000
  70
    32
  0
VERTEX
  8
0
  5
30D
 10
47.6327
 20
71.4582
 30
0.000000
  70
    32
  0
VERTEX
  8
0
  5
30E
 10
47.6345
 20
71.4620
 30
0.000000
  70
    32
  0
VERTEX
  8
0
  5
30F
 10
47.6362
 20
71.4658
 30
0.000000
  70
    32
  0
VERTEX
  8
0
  5
310
 10
47.6379
 20
71.4696
 30
0.000000
  70
    32
  0
VERTEX
  8
0
  5
311
 10
47.6395
 20
71.4734
 30
0.000000
  70
    32
  0
VERTEX
  8
0
  5
312
 10
47.6412
 20
71.4773
 30
0.000000
  70
    32
  0
VERTEX
  8
0
  5
313
 10
47.6428
 20
71.4811
 30
0.000000
  70
    32
  0
VERTEX
  8
0
  5
314
 10
47.6444
 20
71.4850
 30
0.000000
  70
    32
  0
VERTEX
  8
0
  5
315
 10
47.6459
 20
71.4889
 30
0.000000
  70
    32
  0
VERTEX
  8
0
  5
316
 10
47.6474
 20
71.4928
 30
0.000000
  70
    32
  0
VERTEX
  8
0
  5
317
 10
47.6489
 20
71.4967
 30
0.000000
  70
    32
  0
VERTEX
  8
0
  5
318
 10
47.6504
 20
71.5006
 30
0.000000
  70
    32
  0
VERTEX
  8
0
  5
319
 10
47.6518
 20
71.5046
 30
0.000000
  70
    32
  0
VERTEX
  8
0
  5
31A
 10
47.6532
 20
71.5085
 30
0.000000
  70
    32
  0
VERTEX
  8
0
  5
31B
 10
47.6546
 20
71.5125
 30
0.000000
  70
    32
  0
VERTEX
  8
0
  5
31C
 10
47.6560
 20
71.5165
 30
0.000000
  70
    32
  0
VERTEX
  8
0
  5
31D
 10
47.6573
 20
71.5205
 30
0.000000
  70
    32
  0
VERTEX
  8
0
  5
31E
 10
47.6586
 20
71.5245
 30
0.000000
  70
    32
  0
VERTEX
  8
0
  5
31F
 10
47.6598
 20
71.5285
 30
0.000000
  70
    32
  0
VERTEX
  8
0
  5
320
 10
47.6611
 20
71.5326
 30
0.000000
  70
    32
  0
VERTEX
  8
0
  5
321
 10
47.6623
 20
71.5366
 30
0.000000
  70
    32
  0
VERTEX
  8
0
  5
322
 10
47.6634
 20
71.5407
 30
0.000000
  70
    32
  0
VERTEX
  8
0
  5
323
 10
47.6646
 20
71.5447
 30
0.000000
  70
    32
  0
VERTEX
  8
0
  5
324
 10
47.6657
 20
71.5488
 30
0.000000
  70
    32
  0
VERTEX
  8
0
  5
325
 10
47.6668
 20
71.5529
 30
0.000000
  70
    32
  0
VERTEX
  8
0
  5
326
 10
47.6679
 20
71.5570
 30
0.000000
  70
    32
  0
VERTEX
  8
0
  5
327
 10
47.6689
 20
71.5612
 30
0.000000
  70
    32
  0
VERTEX
  8
0
  5
328
 10
47.6699
 20
71.5653
 30
0.000000
  70
    32
  0
VERTEX
  8
0
  5
329
 10
47.6708
 20
71.5694
 30
0.000000
  70
    32
  0
VERTEX
  8
0
  5
32A
 10
47.6718
 20
71.5736
 30
0.000000
  70
    32
  0
VERTEX
  8
0
  5
32B
 10
47.6727
 20
71.5778
 30
0.000000
  70
    32
  0
VERTEX
  8
0
  5
32C
 10
47.6735
 20
71.5819
 30
0.000000
  70
    32
  0
VERTEX
  8
0
  5
32D
 10
47.6744
 20
71.5861
 30
0.000000
  70
    32
  0
VERTEX
  8
0
  5
32E
 10
47.6752
 20
71.5903
 30
0.000000
  70
    32
  0
VERTEX
  8
0
  5
32F
 10
47.6760
 20
71.5946
 30
0.000000
  70
    32
  0
VERTEX
  8
0
  5
330
 10
47.6767
 20
71.5988
 30
0.000000
  70
    32
  0
VERTEX
  8
0
  5
331
 10
47.6774
 20
71.6030
 30
0.000000
  70
    32
  0
VERTEX
  8
0
  5
332
 10
47.6781
 20
71.6073
 30
0.000000
  70
    32
  0
VERTEX
  8
0
  5
333
 10
47.6788
 20
71.6115
 30
0.000000
  70
    32
  0
VERTEX
  8
0
  5
334
 10
47.6794
 20
71.6158
 30
0.000000
  70
    32
  0
VERTEX
  8
0
  5
335
 10
47.6800
 20
71.6201
 30
0.000000
  70
    32
  0
VERTEX
  8
0
  5
336
 10
47.6806
 20
71.6244
 30
0.000000
  70
    32
  0
VERTEX
  8
0
  5
337
 10
47.6811
 20
71.6287
 30
0.000000
  70
    32
  0
VERTEX
  8
0
  5
338
 10
47.6816
 20
71.6330
 30
0.000000
  70
    32
  0
VERTEX
  8
0
  5
339
 10
47.6820
 20
71.6373
 30
0.000000
  70
    32
  0
VERTEX
  8
0
  5
33A
 10
47.6825
 20
71.6416
 30
0.000000
  70
    32
  0
VERTEX
  8
0
  5
33B
 10
47.6829
 20
71.6459
 30
0.000000
  70
    32
  0
VERTEX
  8
0
  5
33C
 10
47.6832
 20
71.6503
 30
0.000000
  70
    32
  0
VERTEX
  8
0
  5
33D
 10
47.6836
 20
71.6546
 30
0.000000
  70
    32
  0
VERTEX
  8
0
  5
33E
 10
47.6839
 20
71.6590
 30
0.000000
  70
    32
  0
VERTEX
  8
0
  5
33F
 10
47.6841
 20
71.6634
 30
0.000000
  70
    32
  0
VERTEX
  8
0
  5
340
 10
47.6843
 20
71.6678
 30
0.000000
  70
    32
  0
VERTEX
  8
0
  5
341
 10
47.6845
 20
71.6722
 30
0.000000
  70
    32
  0
VERTEX
  8
0
  5
342
 10
47.6847
 20
71.6766
 30
0.000000
  70
    32
  0
VERTEX
  8
0
  5
343
 10
47.6848
 20
71.6810
 30
0.000000
  70
    32
  0
VERTEX
  8
0
  5
344
 10
47.6849
 20
71.6854
 30
0.000000
  70
    32
  0
VERTEX
  8
0
  5
345
 10
47.6850
 20
71.6898
 30
0.000000
  70
    32
  0
VERTEX
  8
0
  5
346
 10
47.6850
 20
71.6942
 30
0.000000
  70
    32
  0
VERTEX
  8
0
  5
347
 10
47.6850
 20
71.7016
 30
0.000000
  70
    32
  0
VERTEX
  8
0
  5
348
 10
47.6848
 20
71.7103
 30
0.000000
  70
    32
  0
VERTEX
  8
0
  5
349
 10
47.6846
 20
71.7190
 30
0.000000
  70
    32
  0
VERTEX
  8
0
  5
34A
 10
47.6841
 20
71.7277
 30
0.000000
  70
    32
  0
VERTEX
  8
0
  5
34B
 10
47.6836
 20
71.7363
 30
0.000000
  70
    32
  0
VERTEX
  8
0
  5
34C
 10
47.6829
 20
71.7449
 30
0.000000
  70
    32
  0
VERTEX
  8
0
  5
34D
 10
47.6821
 20
71.7535
 30
0.000000
  70
    32
  0
VERTEX
  8
0
  5
34E
 10
47.6812
 20
71.7620
 30
0.000000
  70
    32
  0
VERTEX
  8
0
  5
34F
 10
47.6801
 20
71.7705
 30
0.000000
  70
    32
  0
VERTEX
  8
0
  5
350
 10
47.6789
 20
71.7789
 30
0.000000
  70
    32
  0
VERTEX
  8
0
  5
351
 10
47.6776
 20
71.7873
 30
0.000000
  70
    32
  0
VERTEX
  8
0
  5
352
 10
47.6762
 20
71.7957
 30
0.000000
  70
    32
  0
VERTEX
  8
0
  5
353
 10
47.6746
 20
71.8040
 30
0.000000
  70
    32
  0
VERTEX
  8
0
  5
354
 10
47.6730
 20
71.8123
 30
0.000000
  70
    32
  0
VERTEX
  8
0
  5
355
 10
47.6712
 20
71.8205
 30
0.000000
  70
    32
  0
VERTEX
  8
0
  5
356
 10
47.6692
 20
71.8287
 30
0.000000
  70
    32
  0
VERTEX
  8
0
  5
357
 10
47.6672
 20
71.8369
 30
0.000000
  70
    32
  0
VERTEX
  8
0
  5
358
 10
47.6650
 20
71.8450
 30
0.000000
  70
    32
  0
VERTEX
  8
0
  5
359
 10
47.6628
 20
71.8530
 30
0.000000
  70
    32
  0
VERTEX
  8
0
  5
35A
 10
47.6604
 20
71.8610
 30
0.000000
  70
    32
  0
VERTEX
  8
0
  5
35B
 10
47.6579
 20
71.8690
 30
0.000000
  70
    32
  0
VERTEX
  8
0
  5
35C
 10
47.6553
 20
71.8769
 30
0.000000
  70
    32
  0
VERTEX
  8
0
  5
35D
 10
47.6525
 20
71.8847
 30
0.000000
  70
    32
  0
VERTEX
  8
0
  5
35E
 10
47.6497
 20
71.8925
 30
0.000000
  70
    32
  0
VERTEX
  8
0
  5
35F
 10
47.6468
 20
71.9002
 30
0.000000
  70
    32
  0
VERTEX
  8
0
  5
360
 10
47.6437
 20
71.9079
 30
0.000000
  70
    32
  0
VERTEX
  8
0
  5
361
 10
47.6405
 20
71.9156
 30
0.000000
  70
    32
  0
VERTEX
  8
0
  5
362
 10
47.6372
 20
71.9231
 30
0.000000
  70
    32
  0
VERTEX
  8
0
  5
363
 10
47.6339
 20
71.9306
 30
0.000000
  70
    32
  0
VERTEX
  8
0
  5
364
 10
47.6304
 20
71.9381
 30
0.000000
  70
    32
  0
VERTEX
  8
0
  5
365
 10
47.6268
 20
71.9455
 30
0.000000
  70
    32
  0
VERTEX
  8
0
  5
366
 10
47.6231
 20
71.9528
 30
0.000000
  70
    32
  0
VERTEX
  8
0
  5
367
 10
47.6193
 20
71.9601
 30
0.000000
  70
    32
  0
VERTEX
  8
0
  5
368
 10
47.6154
 20
71.9673
 30
0.000000
  70
    32
  0
VERTEX
  8
0
  5
369
 10
47.6114
 20
71.9744
 30
0.000000
  70
    32
  0
VERTEX
  8
0
  5
36A
 10
47.6072
 20
71.9815
 30
0.000000
  70
    32
  0
VERTEX
  8
0
  5
36B
 10
47.6030
 20
71.9885
 30
0.000000
  70
    32
  0
VERTEX
  8
0
  5
36C
 10
47.5987
 20
71.9955
 30
0.000000
  70
    32
  0
VERTEX
  8
0
  5
36D
 10
47.5943
 20
72.0024
 30
0.000000
  70
    32
  0
VERTEX
  8
0
  5
36E
 10
47.5898
 20
72.0092
 30
0.000000
  70
    32
  0
VERTEX
  8
0
  5
36F
 10
47.5852
 20
72.0159
 30
0.000000
  70
    32
  0
VERTEX
  8
0
  5
370
 10
47.5806
 20
72.0226
 30
0.000000
  70
    32
  0
VERTEX
  8
0
  5
371
 10
47.5758
 20
72.0292
 30
0.000000
  70
    32
  0
VERTEX
  8
0
  5
372
 10
47.5709
 20
72.0357
 30
0.000000
  70
    32
  0
VERTEX
  8
0
  5
373
 10
47.5659
 20
72.0422
 30
0.000000
  70
    32
  0
VERTEX
  8
0
  5
374
 10
47.5609
 20
72.0485
 30
0.000000
  70
    32
  0
VERTEX
  8
0
  5
375
 10
47.5557
 20
72.0548
 30
0.000000
  70
    32
  0
VERTEX
  8
0
  5
376
 10
47.5505
 20
72.0611
 30
0.000000
  70
    32
  0
VERTEX
  8
0
  5
377
 10
47.5452
 20
72.0672
 30
0.000000
  70
    32
  0
VERTEX
  8
0
  5
378
 10
47.5397
 20
72.0733
 30
0.000000
  70
    32
  0
VERTEX
  8
0
  5
379
 10
47.5342
 20
72.0793
 30
0.000000
  70
    32
  0
VERTEX
  8
0
  5
37A
 10
47.5287
 20
72.0852
 30
0.000000
  70
    32
  0
VERTEX
  8
0
  5
37B
 10
47.5230
 20
72.0910
 30
0.000000
  70
    32
  0
VERTEX
  8
0
  5
37C
 10
47.5173
 20
72.0968
 30
0.000000
  70
    32
  0
VERTEX
  8
0
  5
37D
 10
47.5114
 20
72.1024
 30
0.000000
  70
    32
  0
VERTEX
  8
0
  5
37E
 10
47.5055
 20
72.1080
 30
0.000000
  70
    32
  0
VERTEX
  8
0
  5
37F
 10
47.4995
 20
72.1135
 30
0.000000
  70
    32
  0
VERTEX
  8
0
  5
380
 10
47.4934
 20
72.1189
 30
0.000000
  70
    32
  0
VERTEX
  8
0
  5
381
 10
47.4873
 20
72.1243
 30
0.000000
  70
    32
  0
VERTEX
  8
0
  5
382
 10
47.4811
 20
72.1295
 30
0.000000
  70
    32
  0
VERTEX
  8
0
  5
383
 10
47.4748
 20
72.1347
 30
0.000000
  70
    32
  0
VERTEX
  8
0
  5
384
 10
47.4684
 20
72.1397
 30
0.000000
  70
    32
  0
VERTEX
  8
0
  5
385
 10
47.4619
 20
72.1447
 30
0.000000
  70
    32
  0
VERTEX
  8
0
  5
386
 10
47.4554
 20
72.1496
 30
0.000000
  70
    32
  0
VERTEX
  8
0
  5
387
 10
47.4488
 20
72.1543
 30
0.000000
  70
    32
  0
VERTEX
  8
0
  5
388
 10
47.4421
 20
72.1590
 30
0.000000
  70
    32
  0
VERTEX
  8
0
  5
389
 10
47.4354
 20
72.1636
 30
0.000000
  70
    32
  0
VERTEX
  8
0
  5
38A
 10
47.4286
 20
72.1681
 30
0.000000
  70
    32
  0
VERTEX
  8
0
  5
38B
 10
47.4217
 20
72.1725
 30
0.000000
  70
    32
  0
VERTEX
  8
0
  5
38C
 10
47.4148
 20
72.1768
 30
0.000000
  70
    32
  0
VERTEX
  8
0
  5
38D
 10
47.4077
 20
72.1810
 30
0.000000
  70
    32
  0
VERTEX
  8
0
  5
38E
 10
47.4007
 20
72.1851
 30
0.000000
  70
    32
  0
VERTEX
  8
0
  5
38F
 10
47.3935
 20
72.1892
 30
0.000000
  70
    32
  0
VERTEX
  8
0
  5
390
 10
47.3863
 20
72.1931
 30
0.000000
  70
    32
  0
VERTEX
  8
0
  5
391
 10
47.3790
 20
72.1969
 30
0.000000
  70
    32
  0
VERTEX
  8
0
  5
392
 10
47.3717
 20
72.2006
 30
0.000000
  70
    32
  0
VERTEX
  8
0
  5
393
 10
47.3643
 20
72.2042
 30
0.000000
  70
    32
  0
VERTEX
  8
0
  5
394
 10
47.3569
 20
72.2077
 30
0.000000
  70
    32
  0
VERTEX
  8
0
  5
395
 10
47.3493
 20
72.2110
 30
0.000000
  70
    32
  0
VERTEX
  8
0
  5
396
 10
47.3418
 20
72.2143
 30
0.000000
  70
    32
  0
VERTEX
  8
0
  5
397
 10
47.3342
 20
72.2175
 30
0.000000
  70
    32
  0
VERTEX
  8
0
  5
398
 10
47.3265
 20
72.2206
 30
0.000000
  70
    32
  0
VERTEX
  8
0
  5
399
 10
47.3187
 20
72.2235
 30
0.000000
  70
    32
  0
VERTEX
  8
0
  5
39A
 10
47.3109
 20
72.2263
 30
0.000000
  70
    32
  0
VERTEX
  8
0
  5
39B
 10
47.3031
 20
72.2291
 30
0.000000
  70
    32
  0
VERTEX
  8
0
  5
39C
 10
47.2952
 20
72.2317
 30
0.000000
  70
    32
  0
VERTEX
  8
0
  5
39D
 10
47.2872
 20
72.2342
 30
0.000000
  70
    32
  0
VERTEX
  8
0
  5
39E
 10
47.2792
 20
72.2366
 30
0.000000
  70
    32
  0
VERTEX
  8
0
  5
39F
 10
47.2712
 20
72.2389
 30
0.000000
  70
    32
  0
VERTEX
  8
0
  5
3A0
 10
47.2631
 20
72.2410
 30
0.000000
  70
    32
  0
VERTEX
  8
0
  5
3A1
 10
47.2550
 20
72.2430
 30
0.000000
  70
    32
  0
VERTEX
  8
0
  5
3A2
 10
47.2468
 20
72.2450
 30
0.000000
  70
    32
  0
VERTEX
  8
0
  5
3A3
 10
47.2385
 20
72.2468
 30
0.000000
  70
    32
  0
VERTEX
  8
0
  5
3A4
 10
47.2302
 20
72.2484
 30
0.000000
  70
    32
  0
VERTEX
  8
0
  5
3A5
 10
47.2219
 20
72.2500
 30
0.000000
  70
    32
  0
VERTEX
  8
0
  5
3A6
 10
47.2136
 20
72.2514
 30
0.000000
  70
    32
  0
VERTEX
  8
0
  5
3A7
 10
47.2051
 20
72.2527
 30
0.000000
  70
    32
  0
VERTEX
  8
0
  5
3A8
 10
47.1967
 20
72.2539
 30
0.000000
  70
    32
  0
VERTEX
  8
0
  5
3A9
 10
47.1882
 20
72.2550
 30
0.000000
  70
    32
  0
VERTEX
  8
0
  5
3AA
 10
47.1797
 20
72.2559
 30
0.000000
  70
    32
  0
VERTEX
  8
0
  5
3AB
 10
47.1711
 20
72.2567
 30
0.000000
  70
    32
  0
VERTEX
  8
0
  5
3AC
 10
47.1625
 20
72.2574
 30
0.000000
  70
    32
  0
VERTEX
  8
0
  5
3AD
 10
47.1539
 20
72.2579
 30
0.000000
  70
    32
  0
VERTEX
  8
0
  5
3AE
 10
47.1452
 20
72.2584
 30
0.000000
  70
    32
  0
VERTEX
  8
0
  5
3AF
 10
47.1365
 20
72.2587
 30
0.000000
  70
    32
  0
VERTEX
  8
0
  5
3B0
 10
47.1278
 20
72.2588
 30
0.000000
  70
    32
  0
VERTEX
  8
0
  5
3B1
 10
47.1206
 20
72.2588
 30
0.000000
  70
    32
  0
VERTEX
  8
0
  5
3B2
 10
47.1168
 20
72.2588
 30
0.000000
  70
    32
  0
VERTEX
  8
0
  5
3B3
 10
47.1130
 20
72.2588
 30
0.000000
  70
    32
  0
VERTEX
  8
0
  5
3B4
 10
47.1092
 20
72.2587
 30
0.000000
  70
    32
  0
VERTEX
  8
0
  5
3B5
 10
47.1054
 20
72.2586
 30
0.000000
  70
    32
  0
VERTEX
  8
0
  5
3B6
 10
47.1016
 20
72.2585
 30
0.000000
  70
    32
  0
VERTEX
  8
0
  5
3B7
 10
47.0978
 20
72.2583
 30
0.000000
  70
    32
  0
VERTEX
  8
0
  5
3B8
 10
47.0940
 20
72.2582
 30
0.000000
  70
    32
  0
VERTEX
  8
0
  5
3B9
 10
47.0902
 20
72.2580
 30
0.000000
  70
    32
  0
VERTEX
  8
0
  5
3BA
 10
47.0864
 20
72.2577
 30
0.000000
  70
    32
  0
VERTEX
  8
0
  5
3BB
 10
47.0827
 20
72.2575
 30
0.000000
  70
    32
  0
VERTEX
  8
0
  5
3BC
 10
47.0789
 20
72.2572
 30
0.000000
  70
    32
  0
VERTEX
  8
0
  5
3BD
 10
47.0751
 20
72.2569
 30
0.000000
  70
    32
  0
VERTEX
  8
0
  5
3BE
 10
47.0714
 20
72.2566
 30
0.000000
  70
    32
  0
VERTEX
  8
0
  5
3BF
 10
47.0677
 20
72.2563
 30
0.000000
  70
    32
  0
VERTEX
  8
0
  5
3C0
 10
47.0639
 20
72.2559
 30
0.000000
  70
    32
  0
VERTEX
  8
0
  5
3C1
 10
47.0602
 20
72.2555
 30
0.000000
  70
    32
  0
VERTEX
  8
0
  5
3C2
 10
47.0565
 20
72.2551
 30
0.000000
  70
    32
  0
VERTEX
  8
0
  5
3C3
 10
47.0528
 20
72.2546
 30
0.000000
  70
    32
  0
VERTEX
  8
0
  5
3C4
 10
47.0491
 20
72.2542
 30
0.000000
  70
    32
  0
VERTEX
  8
0
  5
3C5
 10
47.0454
 20
72.2537
 30
0.000000
  70
    32
  0
VERTEX
  8
0
  5
3C6
 10
47.0417
 20
72.2532
 30
0.000000
  70
    32
  0
VERTEX
  8
0
  5
3C7
 10
47.0380
 20
72.2526
 30
0.000000
  70
    32
  0
VERTEX
  8
0
  5
3C8
 10
47.0343
 20
72.2521
 30
0.000000
  70
    32
  0
VERTEX
  8
0
  5
3C9
 10
47.0307
 20
72.2515
 30
0.000000
  70
    32
  0
VERTEX
  8
0
  5
3CA
 10
47.0270
 20
72.2509
 30
0.000000
  70
    32
  0
VERTEX
  8
0
  5
3CB
 10
47.0234
 20
72.2503
 30
0.000000
  70
    32
  0
VERTEX
  8
0
  5
3CC
 10
47.0197
 20
72.2496
 30
0.000000
  70
    32
  0
VERTEX
  8
0
  5
3CD
 10
47.0161
 20
72.2489
 30
0.000000
  70
    32
  0
VERTEX
  8
0
  5
3CE
 10
47.0125
 20
72.2482
 30
0.000000
  70
    32
  0
VERTEX
  8
0
  5
3CF
 10
47.0088
 20
72.2475
 30
0.000000
  70
    32
  0
VERTEX
  8
0
  5
3D0
 10
47.0052
 20
72.2468
 30
0.000000
  70
    32
  0
VERTEX
  8
0
  5
3D1
 10
47.0016
 20
72.2460
 30
0.000000
  70
    32
  0
VERTEX
  8
0
  5
3D2
 10
46.9980
 20
72.2452
 30
0.000000
  70
    32
  0
VERTEX
  8
0
  5
3D3
 10
46.9945
 20
72.2444
 30
0.000000
  70
    32
  0
VERTEX
  8
0
  5
3D4
 10
46.9909
 20
72.2435
 30
0.000000
  70
    32
  0
VERTEX
  8
0
  5
3D5
 10
46.9873
 20
72.2427
 30
0.000000
  70
    32
  0
VERTEX
  8
0
  5
3D6
 10
46.9838
 20
72.2418
 30
0.000000
  70
    32
  0
VERTEX
  8
0
  5
3D7
 10
46.9802
 20
72.2409
 30
0.000000
  70
    32
  0
VERTEX
  8
0
  5
3D8
 10
46.9767
 20
72.2400
 30
0.000000
  70
    32
  0
VERTEX
  8
0
  5
3D9
 10
46.9732
 20
72.2390
 30
0.000000
  70
    32
  0
VERTEX
  8
0
  5
3DA
 10
46.9696
 20
72.2381
 30
0.000000
  70
    32
  0
VERTEX
  8
0
  5
3DB
 10
46.9661
 20
72.2371
 30
0.000000
  70
    32
  0
VERTEX
  8
0
  5
3DC
 10
46.9626
 20
72.2360
 30
0.000000
  70
    32
  0
VERTEX
  8
0
  5
3DD
 10
46.9591
 20
72.2350
 30
0.000000
  70
    32
  0
VERTEX
  8
0
  5
3DE
 10
46.9556
 20
72.2339
 30
0.000000
  70
    32
  0
VERTEX
  8
0
  5
3DF
 10
46.9522
 20
72.2329
 30
0.000000
  70
    32
  0
VERTEX
  8
0
  5
3E0
 10
46.9487
 20
72.2318
 30
0.000000
  70
    32
  0
VERTEX
  8
0
  5
3E1
 10
46.9453
 20
72.2306
 30
0.000000
  70
    32
  0
VERTEX
  8
0
  5
3E2
 10
46.9418
 20
72.2295
 30
0.000000
  70
    32
  0
VERTEX
  8
0
  5
3E3
 10
46.9384
 20
72.2283
 30
0.000000
  70
    32
  0
VERTEX
  8
0
  5
3E4
 10
46.9350
 20
72.2271
 30
0.000000
  70
    32
  0
VERTEX
  8
0
  5
3E5
 10
46.9316
 20
72.2259
 30
0.000000
  70
    32
  0
VERTEX
  8
0
  5
3E6
 10
46.9281
 20
72.2247
 30
0.000000
  70
    32
  0
VERTEX
  8
0
  5
3E7
 10
46.9248
 20
72.2234
 30
0.000000
  70
    32
  0
VERTEX
  8
0
  5
3E8
 10
46.9214
 20
72.2222
 30
0.000000
  70
    32
  0
VERTEX
  8
0
  5
3E9
 10
46.9180
 20
72.2209
 30
0.000000
  70
    32
  0
VERTEX
  8
0
  5
3EA
 10
46.9146
 20
72.2195
 30
0.000000
  70
    32
  0
VERTEX
  8
0
  5
3EB
 10
46.9113
 20
72.2182
 30
0.000000
  70
    32
  0
VERTEX
  8
0
  5
3EC
 10
46.9079
 20
72.2168
 30
0.000000
  70
    32
  0
VERTEX
  8
0
  5
3ED
 10
46.9046
 20
72.2155
 30
0.000000
  70
    32
  0
VERTEX
  8
0
  5
3EE
 10
46.9013
 20
72.2141
 30
0.000000
  70
    32
  0
VERTEX
  8
0
  5
3EF
 10
46.8980
 20
72.2126
 30
0.000000
  70
    32
  0
VERTEX
  8
0
  5
3F0
 10
46.8947
 20
72.2112
 30
0.000000
  70
    32
  0
VERTEX
  8
0
  5
3F1
 10
46.8914
 20
72.2097
 30
0.000000
  70
    32
  0
VERTEX
  8
0
  5
3F2
 10
46.8881
 20
72.2083
 30
0.000000
  70
    32
  0
VERTEX
  8
0
  5
3F3
 10
46.8849
 20
72.2068
 30
0.000000
  70
    32
  0
VERTEX
  8
0
  5
3F4
 10
46.8816
 20
72.2052
 30
0.000000
  70
    32
  0
VERTEX
  8
0
  5
3F5
 10
46.8784
 20
72.2037
 30
0.000000
  70
    32
  0
VERTEX
  8
0
  5
3F6
 10
46.8751
 20
72.2021
 30
0.000000
  70
    32
  0
VERTEX
  8
0
  5
3F7
 10
46.8719
 20
72.2006
 30
0.000000
  70
    32
  0
VERTEX
  8
0
  5
3F8
 10
46.8687
 20
72.1990
 30
0.000000
  70
    32
  0
VERTEX
  8
0
  5
3F9
 10
46.8655
 20
72.1973
 30
0.000000
  70
    32
  0
VERTEX
  8
0
  5
3FA
 10
46.8623
 20
72.1957
 30
0.000000
  70
    32
  0
VERTEX
  8
0
  5
3FB
 10
46.8592
 20
72.1940
 30
0.000000
  70
    32
  0
VERTEX
  8
0
  5
3FC
 10
46.8560
 20
72.1924
 30
0.000000
  70
    32
  0
VERTEX
  8
0
  5
3FD
 10
46.8529
 20
72.1907
 30
0.000000
  70
    32
  0
VERTEX
  8
0
  5
3FE
 10
46.8497
 20
72.1889
 30
0.000000
  70
    32
  0
VERTEX
  8
0
  5
3FF
 10
46.8466
 20
72.1872
 30
0.000000
  70
    32
  0
VERTEX
  8
0
  5
400
 10
46.8435
 20
72.1854
 30
0.000000
  70
    32
  0
VERTEX
  8
0
  5
401
 10
46.8404
 20
72.1837
 30
0.000000
  70
    32
  0
VERTEX
  8
0
  5
402
 10
46.8373
 20
72.1819
 30
0.000000
  70
    32
  0
VERTEX
  8
0
  5
403
 10
46.8342
 20
72.1801
 30
0.000000
  70
    32
  0
VERTEX
  8
0
  5
404
 10
46.8312
 20
72.1782
 30
0.000000
  70
    32
  0
VERTEX
  8
0
  5
405
 10
46.8281
 20
72.1764
 30
0.000000
  70
    32
  0
VERTEX
  8
0
  5
406
 10
46.8251
 20
72.1745
 30
0.000000
  70
    32
  0
VERTEX
  8
0
  5
407
 10
46.8221
 20
72.1726
 30
0.000000
  70
    32
  0
VERTEX
  8
0
  5
408
 10
46.8190
 20
72.1707
 30
0.000000
  70
    32
  0
VERTEX
  8
0
  5
409
 10
46.8160
 20
72.1688
 30
0.000000
  70
    32
  0
VERTEX
  8
0
  5
40A
 10
46.8131
 20
72.1668
 30
0.000000
  70
    32
  0
VERTEX
  8
0
  5
40B
 10
46.8101
 20
72.1649
 30
0.000000
  70
    32
  0
VERTEX
  8
0
  5
40C
 10
46.8071
 20
72.1629
 30
0.000000
  70
    32
  0
VERTEX
  8
0
  5
40D
 10
46.8042
 20
72.1609
 30
0.000000
  70
    32
  0
VERTEX
  8
0
  5
40E
 10
46.8012
 20
72.1589
 30
0.000000
  70
    32
  0
VERTEX
  8
0
  5
40F
 10
46.7983
 20
72.1568
 30
0.000000
  70
    32
  0
VERTEX
  8
0
  5
410
 10
46.7954
 20
72.1548
 30
0.000000
  70
    32
  0
VERTEX
  8
0
  5
411
 10
46.7925
 20
72.1527
 30
0.000000
  70
    32
  0
VERTEX
  8
0
  5
412
 10
46.7896
 20
72.1506
 30
0.000000
  70
    32
  0
VERTEX
  8
0
  5
413
 10
46.7868
 20
72.1485
 30
0.000000
  70
    32
  0
VERTEX
  8
0
  5
414
 10
46.7839
 20
72.1464
 30
0.000000
  70
    32
  0
VERTEX
  8
0
  5
415
 10
46.7811
 20
72.1443
 30
0.000000
  70
    32
  0
VERTEX
  8
0
  5
416
 10
46.7783
 20
72.1421
 30
0.000000
  70
    32
  0
VERTEX
  8
0
  5
417
 10
46.7754
 20
72.1399
 30
0.000000
  70
    32
  0
VERTEX
  8
0
  5
418
 10
46.7727
 20
72.1377
 30
0.000000
  70
    32
  0
VERTEX
  8
0
  5
419
 10
46.7699
 20
72.1355
 30
0.000000
  70
    32
  0
VERTEX
  8
0
  5
41A
 10
46.7671
 20
72.1333
 30
0.000000
  70
    32
  0
VERTEX
  8
0
  5
41B
 10
46.7643
 20
72.1311
 30
0.000000
  70
    32
  0
SEQEND
  8
0
  5
41C
  0
POLYLINE
  8
0
  5
41D
  62
1
  66
     1
 10
0.000000
 20
0.000000
 30
0.000000
  70
     8
  0
VERTEX
  8
0
  5
41E
 10
38.9533
 20
75.3885
 30
0.000000
  70
    32
  0
VERTEX
  8
0
  5
41F
 10
38.9538
 20
75.3205
 30
0.000000
  70
    32
  0
VERTEX
  8
0
  5
420
 10
38.9553
 20
75.2527
 30
0.000000
  70
    32
  0
VERTEX
  8
0
  5
421
 10
38.9577
 20
75.1851
 30
0.000000
  70
    32
  0
VERTEX
  8
0
  5
422
 10
38.9611
 20
75.1177
 30
0.000000
  70
    32
  0
VERTEX
  8
0
  5
423
 10
38.9655
 20
75.0507
 30
0.000000
  70
    32
  0
VERTEX
  8
0
  5
424
 10
38.9709
 20
74.9839
 30
0.000000
  70
    32
  0
VERTEX
  8
0
  5
425
 10
38.9772
 20
74.9173
 30
0.000000
  70
    32
  0
VERTEX
  8
0
  5
426
 10
38.9844
 20
74.8511
 30
0.000000
  70
    32
  0
VERTEX
  8
0
  5
427
 10
38.9926
 20
74.7851
 30
0.000000
  70
    32
  0
VERTEX
  8
0
  5
428
 10
39.0017
 20
74.7195
 30
0.000000
  70
    32
  0
VERTEX
  8
0
  5
429
 10
39.0118
 20
74.6541
 30
0.000000
  70
    32
  0
VERTEX
  8
0
  5
42A
 10
39.0227
 20
74.5890
 30
0.000000
  70
    32
  0
VERTEX
  8
0
  5
42B
 10
39.0346
 20
74.5243
 30
0.000000
  70
    32
  0
VERTEX
  8
0
  5
42C
 10
39.0473
 20
74.4598
 30
0.000000
  70
    32
  0
VERTEX
  8
0
  5
42D
 10
39.0610
 20
74.3957
 30
0.000000
  70
    32
  0
VERTEX
  8
0
  5
42E
 10
39.0755
 20
74.3320
 30
0.000000
  70
    32
  0
VERTEX
  8
0
  5
42F
 10
39.0910
 20
74.2685
 30
0.000000
  70
    32
  0
VERTEX
  8
0
  5
430
 10
39.1073
 20
74.2054
 30
0.000000
  70
    32
  0
VERTEX
  8
0
  5
431
 10
39.1244
 20
74.1427
 30
0.000000
  70
    32
  0
VERTEX
  8
0
  5
432
 10
39.1425
 20
74.0803
 30
0.000000
  70
    32
  0
VERTEX
  8
0
  5
433
 10
39.1614
 20
74.0183
 30
0.000000
  70
    32
  0
VERTEX
  8
0
  5
434
 10
39.1811
 20
73.9567
 30
0.000000
  70
    32
  0
VERTEX
  8
0
  5
435
 10
39.2017
 20
73.8955
 30
0.000000
  70
    32
  0
VERTEX
  8
0
  5
436
 10
39.2231
 20
73.8346
 30
0.000000
  70
    32
  0
VERTEX
  8
0
  5
437
 10
39.2453
 20
73.7741
 30
0.000000
  70
    32
  0
VERTEX
  8
0
  5
438
 10
39.2684
 20
73.7141
 30
0.000000
  70
    32
  0
VERTEX
  8
0
  5
439
 10
39.2923
 20
73.6544
 30
0.000000
  70
    32
  0
VERTEX
  8
0
  5
43A
 10
39.3170
 20
73.5952
 30
0.000000
  70
    32
  0
VERTEX
  8
0
  5
43B
 10
39.3425
 20
73.5364
 30
0.000000
  70
    32
  0
VERTEX
  8
0
  5
43C
 10
39.3687
 20
73.4780
 30
0.000000
  70
    32
  0
VERTEX
  8
0
  5
43D
 10
39.3958
 20
73.4201
 30
0.000000
  70
    32
  0
VERTEX
  8
0
  5
43E
 10
39.4237
 20
73.3626
 30
0.000000
  70
    32
  0
VERTEX
  8
0
  5
43F
 10
39.4523
 20
73.3055
 30
0.000000
  70
    32
  0
VERTEX
  8
0
  5
440
 10
39.4817
 20
73.2489
 30
0.000000
  70
    32
  0
VERTEX
  8
0
  5
441
 10
39.5118
 20
73.1928
 30
0.000000
  70
    32
  0
VERTEX
  8
0
  5
442
 10
39.5427
 20
73.1371
 30
0.000000
  70
    32
  0
VERTEX
  8
0
  5
443
 10
39.5744
 20
73.0819
 30
0.000000
  70
    32
  0
VERTEX
  8
0
  5
444
 10
39.6067
 20
73.0272
 30
0.000000
  70
    32
  0
VERTEX
  8
0
  5
445
 10
39.6399
 20
72.9730
 30
0.000000
  70
    32
  0
VERTEX
  8
0
  5
446
 10
39.6737
 20
72.9193
 30
0.000000
  70
    32
  0
VERTEX
  8
0
  5
447
 10
39.7083
 20
72.8661
 30
0.000000
  70
    32
  0
VERTEX
  8
0
  5
448
 10
39.7435
 20
72.8134
 30
0.000000
  70
    32
  0
VERTEX
  8
0
  5
449
 10
39.7795
 20
72.7612
 30
0.000000
  70
    32
  0
VERTEX
  8
0
  5
44A
 10
39.8162
 20
72.7095
 30
0.000000
  70
    32
  0
VERTEX
  8
0
  5
44B
 10
39.8536
 20
72.6584
 30
0.000000
  70
    32
  0
VERTEX
  8
0
  5
44C
 10
39.8916
 20
72.6078
 30
0.000000
  70
    32
  0
VERTEX
  8
0
  5
44D
 10
39.9304
 20
72.5577
 30
0.000000
  70
    32
  0
VERTEX
  8
0
  5
44E
 10
39.9698
 20
72.5083
 30
0.000000
  70
    32
  0
VERTEX
  8
0
  5
44F
 10
40.0098
 20
72.4593
 30
0.000000
  70
    32
  0
VERTEX
  8
0
  5
450
 10
40.0506
 20
72.4109
 30
0.000000
  70
    32
  0
VERTEX
  8
0
  5
451
 10
40.0919
 20
72.3631
 30
0.000000
  70
    32
  0
VERTEX
  8
0
  5
452
 10
40.1339
 20
72.3159
 30
0.000000
  70
    32
  0
VERTEX
  8
0
  5
453
 10
40.1766
 20
72.2693
 30
0.000000
  70
    32
  0
VERTEX
  8
0
  5
454
 10
40.2199
 20
72.2233
 30
0.000000
  70
    32
  0
VERTEX
  8
0
  5
455
 10
40.2638
 20
72.1778
 30
0.000000
  70
    32
  0
VERTEX
  8
0
  5
456
 10
40.3083
 20
72.1330
 30
0.000000
  70
    32
  0
VERTEX
  8
0
  5
457
 10
40.3535
 20
72.0888
 30
0.000000
  70
    32
  0
VERTEX
  8
0
  5
458
 10
40.3992
 20
72.0452
 30
0.000000
  70
    32
  0
VERTEX
  8
0
  5
459
 10
40.4455
 20
72.0022
 30
0.000000
  70
    32
  0
VERTEX
  8
0
  5
45A
 10
40.4925
 20
71.9599
 30
0.000000
  70
    32
  0
VERTEX
  8
0
  5
45B
 10
40.5400
 20
71.9182
 30
0.000000
  70
    32
  0
VERTEX
  8
0
  5
45C
 10
40.5881
 20
71.8771
 30
0.000000
  70
    32
  0
VERTEX
  8
0
  5
45D
 10
40.6367
 20
71.8367
 30
0.000000
  70
    32
  0
VERTEX
  8
0
  5
45E
 10
40.6859
 20
71.7970
 30
0.000000
  70
    32
  0
VERTEX
  8
0
  5
45F
 10
40.7357
 20
71.7579
 30
0.000000
  70
    32
  0
VERTEX
  8
0
  5
460
 10
40.7860
 20
71.7195
 30
0.000000
  70
    32
  0
VERTEX
  8
0
  5
461
 10
40.8369
 20
71.6818
 30
0.000000
  70
    32
  0
VERTEX
  8
0
  5
462
 10
40.8883
 20
71.6448
 30
0.000000
  70
    32
  0
VERTEX
  8
0
  5
463
 10
40.9402
 20
71.6084
 30
0.000000
  70
    32
  0
VERTEX
  8
0
  5
464
 10
40.9926
 20
71.5728
 30
0.000000
  70
    32
  0
VERTEX
  8
0
  5
465
 10
41.0456
 20
71.5379
 30
0.000000
  70
    32
  0
VERTEX
  8
0
  5
466
 10
41.0990
 20
71.5037
 30
0.000000
  70
    32
  0
VERTEX
  8
0
  5
467
 10
41.1530
 20
71.4702
 30
0.000000
  70
    32
  0
VERTEX
  8
0
  5
468
 10
41.2075
 20
71.4374
 30
0.000000
  70
    32
  0
VERTEX
  8
0
  5
469
 10
41.2624
 20
71.4054
 30
0.000000
  70
    32
  0
VERTEX
  8
0
  5
46A
 10
41.3178
 20
71.3742
 30
0.000000
  70
    32
  0
VERTEX
  8
0
  5
46B
 10
41.3737
 20
71.3436
 30
0.000000
  70
    32
  0
VERTEX
  8
0
  5
46C
 10
41.4301
 20
71.3139
 30
0.000000
  70
    32
  0
VERTEX
  8
0
  5
46D
 10
41.4869
 20
71.2849
 30
0.000000
  70
    32
  0
VERTEX
  8
0
  5
46E
 10
41.5442
 20
71.2566
 30
0.000000
  70
    32
  0
VERTEX
  8
0
  5
46F
 10
41.6019
 20
71.2292
 30
0.000000
  70
    32
  0
VERTEX
  8
0
  5
470
 10
41.6601
 20
71.2025
 30
0.000000
  70
    32
  0
VERTEX
  8
0
  5
471
 10
41.7187
 20
71.1766
 30
0.000000
  70
    32
  0
VERTEX
  8
0
  5
472
 10
41.7777
 20
71.1515
 30
0.000000
  70
    32
  0
VERTEX
  8
0
  5
473
 10
41.8372
 20
71.1272
 30
0.000000
  70
    32
  0
VERTEX
  8
0
  5
474
 10
41.8970
 20
71.1037
 30
0.000000
  70
    32
  0
VERTEX
  8
0
  5
475
 10
41.9573
 20
71.0811
 30
0.000000
  70
    32
  0
VERTEX
  8
0
  5
476
 10
42.0180
 20
71.0593
 30
0.000000
  70
    32
  0
VERTEX
  8
0
  5
477
 10
42.0790
 20
71.0383
 30
0.000000
  70
    32
  0
VERTEX
  8
0
  5
478
 10
42.1404
 20
71.0181
 30
0.000000
  70
    32
  0
VERTEX
  8
0
  5
479
 10
42.2023
 20
70.9988
 30
0.000000
  70
    32
  0
VERTEX
  8
0
  5
47A
 10
42.2644
 20
70.9803
 30
0.000000
  70
    32
  0
VERTEX
  8
0
  5
47B
 10
42.3270
 20
70.9627
 30
0.000000
  70
    32
  0
VERTEX
  8
0
  5
47C
 10
42.3899
 20
70.9460
 30
0.000000
  70
    32
  0
VERTEX
  8
0
  5
47D
 10
42.4532
 20
70.9301
 30
0.000000
  70
    32
  0
VERTEX
  8
0
  5
47E
 10
42.5168
 20
70.9151
 30
0.000000
  70
    32
  0
VERTEX
  8
0
  5
47F
 10
42.5807
 20
70.9010
 30
0.000000
  70
    32
  0
VERTEX
  8
0
  5
480
 10
42.6450
 20
70.8878
 30
0.000000
  70
    32
  0
VERTEX
  8
0
  5
481
 10
42.7096
 20
70.8755
 30
0.000000
  70
    32
  0
VERTEX
  8
0
  5
482
 10
42.7745
 20
70.8641
 30
0.000000
  70
    32
  0
VERTEX
  8
0
  5
483
 10
42.8397
 20
70.8536
 30
0.000000
  70
    32
  0
VERTEX
  8
0
  5
484
 10
42.9052
 20
70.8440
 30
0.000000
  70
    32
  0
VERTEX
  8
0
  5
485
 10
42.9710
 20
70.8354
 30
0.000000
  70
    32
  0
VERTEX
  8
0
  5
486
 10
43.0371
 20
70.8276
 30
0.000000
  70
    32
  0
VERTEX
  8
0
  5
487
 10
43.1035
 20
70.8209
 30
0.000000
  70
    32
  0
VERTEX
  8
0
  5
488
 10
43.1702
 20
70.8151
 30
0.000000
  70
    32
  0
VERTEX
  8
0
  5
489
 10
43.2371
 20
70.8102
 30
0.000000
  70
    32
  0
VERTEX
  8
0
  5
48A
 10
43.3043
 20
70.8063
 30
0.000000
  70
    32
  0
VERTEX
  8
0
  5
48B
 10
43.3718
 20
70.8033
 30
0.000000
  70
    32
  0
VERTEX
  8
0
  5
48C
 10
43.4395
 20
70.8014
 30
0.000000
  70
    32
  0
VERTEX
  8
0
  5
48D
 10
43.5074
 20
70.8004
 30
0.000000
  70
    32
  0
VERTEX
  8
0
  5
48E
 10
43.5584
 20
70.8003
 30
0.000000
  70
    32
  0
VERTEX
  8
0
  5
48F
 10
43.5923
 20
70.8005
 30
0.000000
  70
    32
  0
VERTEX
  8
0
  5
490
 10
43.6261
 20
70.8010
 30
0.000000
  70
    32
  0
VERTEX
  8
0
  5
491
 10
43.6598
 20
70.8017
 30
0.000000
  70
    32
  0
VERTEX
  8
0
  5
492
 10
43.6935
 20
70.8027
 30
0.000000
  70
    32
  0
VERTEX
  8
0
  5
493
 10
43.7271
 20
70.8039
 30
0.000000
  70
    32
  0
VERTEX
  8
0
  5
494
 10
43.7606
 20
70.8054
 30
0.000000
  70
    32
  0
VERTEX
  8
0
  5
495
 10
43.7941
 20
70.8071
 30
0.000000
  70
    32
  0
VERTEX
  8
0
  5
496
 10
43.8275
 20
70.8090
 30
0.000000
  70
    32
  0
VERTEX
  8
0
  5
497
 10
43.8608
 20
70.8112
 30
0.000000
  70
    32
  0
VERTEX
  8
0
  5
498
 10
43.8941
 20
70.8136
 30
0.000000
  70
    32
  0
VERTEX
  8
0
  5
499
 10
43.9274
 20
70.8162
 30
0.000000
  70
    32
  0
VERTEX
  8
0
  5
49A
 10
43.9605
 20
70.8191
 30
0.000000
  70
    32
  0
VERTEX
  8
0
  5
49B
 10
43.9936
 20
70.8222
 30
0.000000
  70
    32
  0
VERTEX
  8
0
  5
49C
 10
44.0266
 20
70.8256
 30
0.000000
  70
    32
  0
VERTEX
  8
0
  5
49D
 10
44.0596
 20
70.8292
 30
0.000000
  70
    32
  0
VERTEX
  8
0
  5
49E
 10
44.0924
 20
70.8330
 30
0.000000
  70
    32
  0
VERTEX
  8
0
  5
49F
 10
44.1252
 20
70.8370
 30
0.000000
  70
    32
  0
VERTEX
  8
0
  5
4A0
 10
44.1580
 20
70.8413
 30
0.000000
  70
    32
  0
VERTEX
  8
0
  5
4A1
 10
44.1906
 20
70.8458
 30
0.000000
  70
    32
  0
VERTEX
  8
0
  5
4A2
 10
44.2232
 20
70.8505
 30
0.000000
  70
    32
  0
VERTEX
  8
0
  5
4A3
 10
44.2557
 20
70.8555
 30
0.000000
  70
    32
  0
VERTEX
  8
0
  5
4A4
 10
44.2882
 20
70.8607
 30
0.000000
  70
    32
  0
VERTEX
  8
0
  5
4A5
 10
44.3205
 20
70.8661
 30
0.000000
  70
    32
  0
VERTEX
  8
0
  5
4A6
 10
44.3528
 20
70.8717
 30
0.000000
  70
    32
  0
VERTEX
  8
0
  5
4A7
 10
44.3850
 20
70.8776
 30
0.000000
  70
    32
  0
VERTEX
  8
0
  5
4A8
 10
44.4171
 20
70.8837
 30
0.000000
  70
    32
  0
VERTEX
  8
0
  5
4A9
 10
44.4492
 20
70.8900
 30
0.000000
  70
    32
  0
VERTEX
  8
0
  5
4AA
 10
44.4812
 20
70.8965
 30
0.000000
  70
    32
  0
VERTEX
  8
0
  5
4AB
 10
44.5130
 20
70.9033
 30
0.000000
  70
    32
  0
VERTEX
  8
0
  5
4AC
 10
44.5449
 20
70.9103
 30
0.000000
  70
    32
  0
VERTEX
  8
0
  5
4AD
 10
44.5766
 20
70.9175
 30
0.000000
  70
    32
  0
VERTEX
  8
0
  5
4AE
 10
44.6082
 20
70.9249
 30
0.000000
  70
    32
  0
VERTEX
  8
0
  5
4AF
 10
44.6398
 20
70.9325
 30
0.000000
  70
    32
  0
VERTEX
  8
0
  5
4B0
 10
44.6712
 20
70.9404
 30
0.000000
  70
    32
  0
VERTEX
  8
0
  5
4B1
 10
44.7026
 20
70.9484
 30
0.000000
  70
    32
  0
VERTEX
  8
0
  5
4B2
 10
44.7339
 20
70.9567
 30
0.000000
  70
    32
  0
VERTEX
  8
0
  5
4B3
 10
44.7651
 20
70.9652
 30
0.000000
  70
    32
  0
VERTEX
  8
0
  5
4B4
 10
44.7962
 20
70.9739
 30
0.000000
  70
    32
  0
VERTEX
  8
0
  5
4B5
 10
44.8273
 20
70.9828
 30
0.000000
  70
    32
  0
VERTEX
  8
0
  5
4B6
 10
44.8582
 20
70.9920
 30
0.000000
  70
    32
  0
VERTEX
  8
0
  5
4B7
 10
44.8891
 20
71.0013
 30
0.000000
  70
    32
  0
VERTEX
  8
0
  5
4B8
 10
44.9198
 20
71.0109
 30
0.000000
  70
    32
  0
VERTEX
  8
0
  5
4B9
 10
44.9505
 20
71.0206
 30
0.000000
  70
    32
  0
VERTEX
  8
0
  5
4BA
 10
44.9810
 20
71.0306
 30
0.000000
  70
    32
  0
VERTEX
  8
0
  5
4BB
 10
45.0115
 20
71.0408
 30
0.000000
  70
    32
  0
VERTEX
  8
0
  5
4BC
 10
45.0419
 20
71.0512
 30
0.000000
  70
    32
  0
VERTEX
  8
0
  5
4BD
 10
45.0722
 20
71.0618
 30
0.000000
  70
    32
  0
VERTEX
  8
0
  5
4BE
 10
45.1024
 20
71.0725
 30
0.000000
  70
    32
  0
VERTEX
  8
0
  5
4BF
 10
45.1324
 20
71.0836
 30
0.000000
  70
    32
  0
VERTEX
  8
0
  5
4C0
 10
45.1624
 20
71.0948
 30
0.000000
  70
    32
  0
VERTEX
  8
0
  5
4C1
 10
45.1923
 20
71.1062
 30
0.000000
  70
    32
  0
VERTEX
  8
0
  5
4C2
 10
45.2221
 20
71.1178
 30
0.000000
  70
    32
  0
VERTEX
  8
0
  5
4C3
 10
45.2518
 20
71.1296
 30
0.000000
  70
    32
  0
VERTEX
  8
0
  5
4C4
 10
45.2814
 20
71.1416
 30
0.000000
  70
    32
  0
VERTEX
  8
0
  5
4C5
 10
45.3109
 20
71.1538
 30
0.000000
  70
    32
  0
VERTEX
  8
0
  5
4C6
 10
45.3402
 20
71.1662
 30
0.000000
  70
    32
  0
VERTEX
  8
0
  5
4C7
 10
45.3695
 20
71.1788
 30
0.000000
  70
    32
  0
VERTEX
  8
0
  5
4C8
 10
45.3987
 20
71.1916
 30
0.000000
  70
    32
  0
VERTEX
  8
0
  5
4C9
 10
45.4277
 20
71.2046
 30
0.000000
  70
    32
  0
VERTEX
  8
0
  5
4CA
 10
45.4567
 20
71.2178
 30
0.000000
  70
    32
  0
VERTEX
  8
0
  5
4CB
 10
45.4856
 20
71.2312
 30
0.000000
  70
    32
  0
VERTEX
  8
0
  5
4CC
 10
45.5143
 20
71.2448
 30
0.000000
  70
    32
  0
VERTEX
  8
0
  5
4CD
 10
45.5429
 20
71.2586
 30
0.000000
  70
    32
  0
VERTEX
  8
0
  5
4CE
 10
45.5714
 20
71.2725
 30
0.000000
  70
    32
  0
VERTEX
  8
0
  5
4CF
 10
45.5998
 20
71.2867
 30
0.000000
  70
    32
  0
VERTEX
  8
0
  5
4D0
 10
45.6281
 20
71.3011
 30
0.000000
  70
    32
  0
VERTEX
  8
0
  5
4D1
 10
45.6563
 20
71.3156
 30
0.000000
  70
    32
  0
VERTEX
  8
0
  5
4D2
 10
45.6844
 20
71.3303
 30
0.000000
  70
    32
  0
VERTEX
  8
0
  5
4D3
 10
45.7123
 20
71.3452
 30
0.000000
  70
    32
  0
VERTEX
  8
0
  5
4D4
 10
45.7402
 20
71.3603
 30
0.000000
  70
    32
  0
VERTEX
  8
0
  5
4D5
 10
45.7679
 20
71.3756
 30
0.000000
  70
    32
  0
VERTEX
  8
0
  5
4D6
 10
45.7955
 20
71.3911
 30
0.000000
  70
    32
  0
VERTEX
  8
0
  5
4D7
 10
45.8230
 20
71.4068
 30
0.000000
  70
    32
  0
VERTEX
  8
0
  5
4D8
 10
45.8504
 20
71.4226
 30
0.000000
  70
    32
  0
VERTEX
  8
0
  5
4D9
 10
45.8776
 20
71.4386
 30
0.000000
  70
    32
  0
VERTEX
  8
0
  5
4DA
 10
45.9047
 20
71.4548
 30
0.000000
  70
    32
  0
VERTEX
  8
0
  5
4DB
 10
45.9317
 20
71.4712
 30
0.000000
  70
    32
  0
VERTEX
  8
0
  5
4DC
 10
45.9586
 20
71.4878
 30
0.000000
  70
    32
  0
VERTEX
  8
0
  5
4DD
 10
45.9854
 20
71.5045
 30
0.000000
  70
    32
  0
VERTEX
  8
0
  5
4DE
 10
46.0120
 20
71.5214
 30
0.000000
  70
    32
  0
VERTEX
  8
0
  5
4DF
 10
46.0385
 20
71.5385
 30
0.000000
  70
    32
  0
VERTEX
  8
0
  5
4E0
 10
46.0649
 20
71.5558
 30
0.000000
  70
    32
  0
VERTEX
  8
0
  5
4E1
 10
46.0912
 20
71.5733
 30
0.000000
  70
    32
  0
VERTEX
  8
0
  5
4E2
 10
46.1173
 20
71.5909
 30
0.000000
  70
    32
  0
VERTEX
  8
0
  5
4E3
 10
46.1433
 20
71.6087
 30
0.000000
  70
    32
  0
VERTEX
  8
0
  5
4E4
 10
46.1692
 20
71.6267
 30
0.000000
  70
    32
  0
VERTEX
  8
0
  5
4E5
 10
46.1949
 20
71.6448
 30
0.000000
  70
    32
  0
VERTEX
  8
0
  5
4E6
 10
46.2206
 20
71.6631
 30
0.000000
  70
    32
  0
VERTEX
  8
0
  5
4E7
 10
46.2460
 20
71.6816
 30
0.000000
  70
    32
  0
VERTEX
  8
0
  5
4E8
 10
46.2714
 20
71.7003
 30
0.000000
  70
    32
  0
VERTEX
  8
0
  5
4E9
 10
46.2966
 20
71.7191
 30
0.000000
  70
    32
  0
VERTEX
  8
0
  5
4EA
 10
46.3217
 20
71.7381
 30
0.000000
  70
    32
  0
VERTEX
  8
0
  5
4EB
 10
46.3467
 20
71.7573
 30
0.000000
  70
    32
  0
VERTEX
  8
0
  5
4EC
 10
46.3715
 20
71.7766
 30
0.000000
  70
    32
  0
VERTEX
  8
0
  5
4ED
 10
46.3962
 20
71.7961
 30
0.000000
  70
    32
  0
VERTEX
  8
0
  5
4EE
 10
46.4207
 20
71.8158
 30
0.000000
  70
    32
  0
VERTEX
  8
0
  5
4EF
 10
46.4451
 20
71.8356
 30
0.000000
  70
    32
  0
VERTEX
  8
0
  5
4F0
 10
46.4694
 20
71.8556
 30
0.000000
  70
    32
  0
VERTEX
  8
0
  5
4F1
 10
46.4935
 20
71.8758
 30
0.000000
  70
    32
  0
VERTEX
  8
0
  5
4F2
 10
46.5175
 20
71.8961
 30
0.000000
  70
    32
  0
VERTEX
  8
0
  5
4F3
 10
46.5413
 20
71.9166
 30
0.000000
  70
    32
  0
VERTEX
  8
0
  5
4F4
 10
46.5650
 20
71.9372
 30
0.000000
  70
    32
  0
VERTEX
  8
0
  5
4F5
 10
46.5886
 20
71.9580
 30
0.000000
  70
    32
  0
VERTEX
  8
0
  5
4F6
 10
46.6120
 20
71.9789
 30
0.000000
  70
    32
  0
VERTEX
  8
0
  5
4F7
 10
46.6353
 20
72.0001
 30
0.000000
  70
    32
  0
VERTEX
  8
0
  5
4F8
 10
46.6584
 20
72.0213
 30
0.000000
  70
    32
  0
VERTEX
  8
0
  5
4F9
 10
46.6814
 20
72.0427
 30
0.000000
  70
    32
  0
VERTEX
  8
0
  5
4FA
 10
46.7042
 20
72.0643
 30
0.000000
  70
    32
  0
VERTEX
  8
0
  5
4FB
 10
46.7269
 20
72.0861
 30
0.000000
  70
    32
  0
VERTEX
  8
0
  5
4FC
 10
46.7494
 20
72.1079
 30
0.000000
  70
    32
  0
VERTEX
  8
0
  5
4FD
 10
46.7718
 20
72.1300
 30
0.000000
  70
    32
  0
SEQEND
  8
0
  5
4FE
  0
POLYLINE
  8
0
  5
4FF
  62
1
  66
     1
 10
0.000000
 20
0.000000
 30
0.000000
  70
     8
  0
VERTEX
  8
0
  5
500
 10
37.8361
 20
75.3885
 30
0.000000
  70
    32
  0
VERTEX
  8
0
  5
501
 10
37.8367
 20
75.3039
 30
0.000000
  70
    32
  0
VERTEX
  8
0
  5
502
 10
37.8386
 20
75.2196
 30
0.000000
  70
    32
  0
VERTEX
  8
0
  5
503
 10
37.8416
 20
75.1355
 30
0.000000
  70
    32
  0
VERTEX
  8
0
  5
504
 10
37.8459
 20
75.0518
 30
0.000000
  70
    32
  0
VERTEX
  8
0
  5
505
 10
37.8514
 20
74.9684
 30
0.000000
  70
    32
  0
VERTEX
  8
0
  5
506
 10
37.8580
 20
74.8853
 30
0.000000
  70
    32
  0
VERTEX
  8
0
  5
507
 10
37.8659
 20
74.8026
 30
0.000000
  70
    32
  0
VERTEX
  8
0
  5
508
 10
37.8749
 20
74.7202
 30
0.000000
  70
    32
  0
VERTEX
  8
0
  5
509
 10
37.8850
 20
74.6382
 30
0.000000
  70
    32
  0
VERTEX
  8
0
  5
50A
 10
37.8964
 20
74.5565
 30
0.000000
  70
    32
  0
VERTEX
  8
0
  5
50B
 10
37.9088
 20
74.4752
 30
0.000000
  70
    32
  0
VERTEX
  8
0
  5
50C
 10
37.9225
 20
74.3943
 30
0.000000
  70
    32
  0
VERTEX
  8
0
  5
50D
 10
37.9372
 20
74.3138
 30
0.000000
  70
    32
  0
VERTEX
  8
0
  5
50E
 10
37.9531
 20
74.2337
 30
0.000000
  70
    32
  0
VERTEX
  8
0
  5
50F
 10
37.9701
 20
74.1540
 30
0.000000
  70
    32
  0
VERTEX
  8
0
  5
510
 10
37.9882
 20
74.0747
 30
0.000000
  70
    32
  0
VERTEX
  8
0
  5
511
 10
38.0073
 20
73.9958
 30
0.000000
  70
    32
  0
VERTEX
  8
0
  5
512
 10
38.0276
 20
73.9174
 30
0.000000
  70
    32
  0
VERTEX
  8
0
  5
513
 10
38.0490
 20
73.8394
 30
0.000000
  70
    32
  0
VERTEX
  8
0
  5
514
 10
38.0714
 20
73.7618
 30
0.000000
  70
    32
  0
VERTEX
  8
0
  5
515
 10
38.0949
 20
73.6847
 30
0.000000
  70
    32
  0
VERTEX
  8
0
  5
516
 10
38.1194
 20
73.6081
 30
0.000000
  70
    32
  0
VERTEX
  8
0
  5
517
 10
38.1450
 20
73.5319
 30
0.000000
  70
    32
  0
VERTEX
  8
0
  5
518
 10
38.1717
 20
73.4562
 30
0.000000
  70
    32
  0
VERTEX
  8
0
  5
519
 10
38.1993
 20
73.3811
 30
0.000000
  70
    32
  0
VERTEX
  8
0
  5
51A
 10
38.2280
 20
73.3064
 30
0.000000
  70
    32
  0
VERTEX
  8
0
  5
51B
 10
38.2577
 20
73.2322
 30
0.000000
  70
    32
  0
VERTEX
  8
0
  5
51C
 10
38.2884
 20
73.1585
 30
0.000000
  70
    32
  0
VERTEX
  8
0
  5
51D
 10
38.3201
 20
73.0854
 30
0.000000
  70
    32
  0
VERTEX
  8
0
  5
51E
 10
38.3528
 20
73.0128
 30
0.000000
  70
    32
  0
VERTEX
  8
0
  5
51F
 10
38.3864
 20
72.9408
 30
0.000000
  70
    32
  0
VERTEX
  8
0
  5
520
 10
38.4211
 20
72.8692
 30
0.000000
  70
    32
  0
VERTEX
  8
0
  5
521
 10
38.4567
 20
72.7983
 30
0.000000
  70
    32
  0
VERTEX
  8
0
  5
522
 10
38.4932
 20
72.7279
 30
0.000000
  70
    32
  0
VERTEX
  8
0
  5
523
 10
38.5307
 20
72.6581
 30
0.000000
  70
    32
  0
VERTEX
  8
0
  5
524
 10
38.5691
 20
72.5889
 30
0.000000
  70
    32
  0
VERTEX
  8
0
  5
525
 10
38.6085
 20
72.5203
 30
0.000000
  70
    32
  0
VERTEX
  8
0
  5
526
 10
38.6487
 20
72.4522
 30
0.000000
  70
    32
  0
VERTEX
  8
0
  5
527
 10
38.6899
 20
72.3848
 30
0.000000
  70
    32
  0
VERTEX
  8
0
  5
528
 10
38.7320
 20
72.3180
 30
0.000000
  70
    32
  0
VERTEX
  8
0
  5
529
 10
38.7750
 20
72.2519
 30
0.000000
  70
    32
  0
VERTEX
  8
0
  5
52A
 10
38.8188
 20
72.1863
 30
0.000000
  70
    32
  0
VERTEX
  8
0
  5
52B
 10
38.8636
 20
72.1214
 30
0.000000
  70
    32
  0
VERTEX
  8
0
  5
52C
 10
38.9092
 20
72.0572
 30
0.000000
  70
    32
  0
VERTEX
  8
0
  5
52D
 10
38.9557
 20
71.9936
 30
0.000000
  70
    32
  0
VERTEX
  8
0
  5
52E
 10
39.0030
 20
71.9307
 30
0.000000
  70
    32
  0
VERTEX
  8
0
  5
52F
 10
39.0511
 20
71.8685
 30
0.000000
  70
    32
  0
VERTEX
  8
0
  5
530
 10
39.1001
 20
71.8069
 30
0.000000
  70
    32
  0
VERTEX
  8
0
  5
531
 10
39.1500
 20
71.7461
 30
0.000000
  70
    32
  0
VERTEX
  8
0
  5
532
 10
39.2006
 20
71.6860
 30
0.000000
  70
    32
  0
VERTEX
  8
0
  5
533
 10
39.2521
 20
71.6265
 30
0.000000
  70
    32
  0
VERTEX
  8
0
  5
534
 10
39.3043
 20
71.5678
 30
0.000000
  70
    32
  0
VERTEX
  8
0
  5
535
 10
39.3574
 20
71.5098
 30
0.000000
  70
    32
  0
VERTEX
  8
0
  5
536
 10
39.4112
 20
71.4526
 30
0.000000
  70
    32
  0
VERTEX
  8
0
  5
537
 10
39.4658
 20
71.3961
 30
0.000000
  70
    32
  0
VERTEX
  8
0
  5
538
 10
39.5212
 20
71.3403
 30
0.000000
  70
    32
  0
VERTEX
  8
0
  5
539
 10
39.5773
 20
71.2853
 30
0.000000
  70
    32
  0
VERTEX
  8
0
  5
53A
 10
39.6342
 20
71.2311
 30
0.000000
  70
    32
  0
VERTEX
  8
0
  5
53B
 10
39.6918
 20
71.1777
 30
0.000000
  70
    32
  0
VERTEX
  8
0
  5
53C
 10
39.7501
 20
71.1250
 30
0.000000
  70
    32
  0
VERTEX
  8
0
  5
53D
 10
39.8092
 20
71.0732
 30
0.000000
  70
    32
  0
VERTEX
  8
0
  5
53E
 10
39.8690
 20
71.0221
 30
0.000000
  70
    32
  0
VERTEX
  8
0
  5
53F
 10
39.9295
 20
70.9719
 30
0.000000
  70
    32
  0
VERTEX
  8
0
  5
540
 10
39.9907
 20
70.9225
 30
0.000000
  70
    32
  0
VERTEX
  8
0
  5
541
 10
40.0526
 20
70.8739
 30
0.000000
  70
    32
  0
VERTEX
  8
0
  5
542
 10
40.1151
 20
70.8262
 30
0.000000
  70
    32
  0
VERTEX
  8
0
  5
543
 10
40.1784
 20
70.7793
 30
0.000000
  70
    32
  0
VERTEX
  8
0
  5
544
 10
40.2423
 20
70.7332
 30
0.000000
  70
    32
  0
VERTEX
  8
0
  5
545
 10
40.3069
 20
70.6880
 30
0.000000
  70
    32
  0
VERTEX
  8
0
  5
546
 10
40.3721
 20
70.6437
 30
0.000000
  70
    32
  0
VERTEX
  8
0
  5
547
 10
40.4379
 20
70.6003
 30
0.000000
  70
    32
  0
VERTEX
  8
0
  5
548
 10
40.5044
 20
70.5578
 30
0.000000
  70
    32
  0
VERTEX
  8
0
  5
549
 10
40.5715
 20
70.5162
 30
0.000000
  70
    32
  0
VERTEX
  8
0
  5
54A
 10
40.6392
 20
70.4754
 30
0.000000
  70
    32
  0
VERTEX
  8
0
  5
54B
 10
40.7076
 20
70.4356
 30
0.000000
  70
    32
  0
VERTEX
  8
0
  5
54C
 10
40.7765
 20
70.3967
 30
0.000000
  70
    32
  0
VERTEX
  8
0
  5
54D
 10
40.8460
 20
70.3588
 30
0.000000
  70
    32
  0
VERTEX
  8
0
  5
54E
 10
40.9161
 20
70.3218
 30
0.000000
  70
    32
  0
VERTEX
  8
0
  5
54F
 10
40.9868
 20
70.2857
 30
0.000000
  70
    32
  0
VERTEX
  8
0
  5
550
 10
41.0580
 20
70.2506
 30
0.000000
  70
    32
  0
VERTEX
  8
0
  5
551
 10
41.1298
 20
70.2164
 30
0.000000
  70
    32
  0
VERTEX
  8
0
  5
552
 10
41.2021
 20
70.1833
 30
0.000000
  70
    32
  0
VERTEX
  8
0
  5
553
 10
41.2750
 20
70.1511
 30
0.000000
  70
    32
  0
VERTEX
  8
0
  5
554
 10
41.3484
 20
70.1199
 30
0.000000
  70
    32
  0
VERTEX
  8
0
  5
555
 10
41.4223
 20
70.0897
 30
0.000000
  70
    32
  0
VERTEX
  8
0
  5
556
 10
41.4967
 20
70.0605
 30
0.000000
  70
    32
  0
VERTEX
  8
0
  5
557
 10
41.5716
 20
70.0323
 30
0.000000
  70
    32
  0
VERTEX
  8
0
  5
558
 10
41.6471
 20
70.0052
 30
0.000000
  70
    32
  0
VERTEX
  8
0
  5
559
 10
41.7230
 20
69.9791
 30
0.000000
  70
    32
  0
VERTEX
  8
0
  5
55A
 10
41.7994
 20
69.9540
 30
0.000000
  70
    32
  0
VERTEX
  8
0
  5
55B
 10
41.8762
 20
69.9300
 30
0.000000
  70
    32
  0
VERTEX
  8
0
  5
55C
 10
41.9536
 20
69.9070
 30
0.000000
  70
    32
  0
VERTEX
  8
0
  5
55D
 10
42.0313
 20
69.8851
 30
0.000000
  70
    32
  0
VERTEX
  8
0
  5
55E
 10
42.1096
 20
69.8643
 30
0.000000
  70
    32
  0
VERTEX
  8
0
  5
55F
 10
42.1882
 20
69.8446
 30
0.000000
  70
    32
  0
VERTEX
  8
0
  5
560
 10
42.2673
 20
69.8259
 30
0.000000
  70
    32
  0
VERTEX
  8
0
  5
561
 10
42.3468
 20
69.8084
 30
0.000000
  70
    32
  0
VERTEX
  8
0
  5
562
 10
42.4267
 20
69.7920
 30
0.000000
  70
    32
  0
VERTEX
  8
0
  5
563
 10
42.5070
 20
69.7766
 30
0.000000
  70
    32
  0
VERTEX
  8
0
  5
564
 10
42.5877
 20
69.7625
 30
0.000000
  70
    32
  0
VERTEX
  8
0
  5
565
 10
42.6688
 20
69.7494
 30
0.000000
  70
    32
  0
VERTEX
  8
0
  5
566
 10
42.7503
 20
69.7375
 30
0.000000
  70
    32
  0
VERTEX
  8
0
  5
567
 10
42.8322
 20
69.7268
 30
0.000000
  70
    32
  0
VERTEX
  8
0
  5
568
 10
42.9144
 20
69.7172
 30
0.000000
  70
    32
  0
VERTEX
  8
0
  5
569
 10
42.9969
 20
69.7087
 30
0.000000
  70
    32
  0
VERTEX
  8
0
  5
56A
 10
43.0798
 20
69.7015
 30
0.000000
  70
    32
  0
VERTEX
  8
0
  5
56B
 10
43.1630
 20
69.6954
 30
0.000000
  70
    32
  0
VERTEX
  8
0
  5
56C
 10
43.2466
 20
69.6906
 30
0.000000
  70
    32
  0
VERTEX
  8
0
  5
56D
 10
43.3305
 20
69.6869
 30
0.000000
  70
    32
  0
VERTEX
  8
0
  5
56E
 10
43.4147
 20
69.6845
 30
0.000000
  70
    32
  0
VERTEX
  8
0
  5
56F
 10
43.4991
 20
69.6832
 30
0.000000
  70
    32
  0
VERTEX
  8
0
  5
570
 10
43.5627
 20
69.6831
 30
0.000000
  70
    32
  0
VERTEX
  8
0
  5
571
 10
43.6050
 20
69.6834
 30
0.000000
  70
    32
  0
VERTEX
  8
0
  5
572
 10
43.6473
 20
69.6841
 30
0.000000
  70
    32
  0
VERTEX
  8
0
  5
573
 10
43.6894
 20
69.6850
 30
0.000000
  70
    32
  0
VERTEX
  8
0
  5
574
 10
43.7315
 20
69.6862
 30
0.000000
  70
    32
  0
VERTEX
  8
0
  5
575
 10
43.7735
 20
69.6877
 30
0.000000
  70
    32
  0
VERTEX
  8
0
  5
576
 10
43.8155
 20
69.6896
 30
0.000000
  70
    32
  0
VERTEX
  8
0
  5
577
 10
43.8573
 20
69.6917
 30
0.000000
  70
    32
  0
VERTEX
  8
0
  5
578
 10
43.8991
 20
69.6941
 30
0.000000
  70
    32
  0
VERTEX
  8
0
  5
579
 10
43.9408
 20
69.6968
 30
0.000000
  70
    32
  0
VERTEX
  8
0
  5
57A
 10
43.9825
 20
69.6999
 30
0.000000
  70
    32
  0
VERTEX
  8
0
  5
57B
 10
44.0240
 20
69.7032
 30
0.000000
  70
    32
  0
VERTEX
  8
0
  5
57C
 10
44.0654
 20
69.7068
 30
0.000000
  70
    32
  0
VERTEX
  8
0
  5
57D
 10
44.1068
 20
69.7107
 30
0.000000
  70
    32
  0
VERTEX
  8
0
  5
57E
 10
44.1481
 20
69.7150
 30
0.000000
  70
    32
  0
VERTEX
  8
0
  5
57F
 10
44.1893
 20
69.7195
 30
0.000000
  70
    32
  0
VERTEX
  8
0
  5
580
 10
44.2304
 20
69.7243
 30
0.000000
  70
    32
  0
VERTEX
  8
0
  5
581
 10
44.2714
 20
69.7293
 30
0.000000
  70
    32
  0
VERTEX
  8
0
  5
582
 10
44.3123
 20
69.7347
 30
0.000000
  70
    32
  0
VERTEX
  8
0
  5
583
 10
44.3532
 20
69.7404
 30
0.000000
  70
    32
  0
VERTEX
  8
0
  5
584
 10
44.3939
 20
69.7463
 30
0.000000
  70
    32
  0
VERTEX
  8
0
  5
585
 10
44.4346
 20
69.7526
 30
0.000000
  70
    32
  0
VERTEX
  8
0
  5
586
 10
44.4751
 20
69.7591
 30
0.000000
  70
    32
  0
VERTEX
  8
0
  5
587
 10
44.5156
 20
69.7659
 30
0.000000
  70
    32
  0
VERTEX
  8
0
  5
588
 10
44.5559
 20
69.7730
 30
0.000000
  70
    32
  0
VERTEX
  8
0
  5
589
 10
44.5962
 20
69.7804
 30
0.000000
  70
    32
  0
VERTEX
  8
0
  5
58A
 10
44.6364
 20
69.7880
 30
0.000000
  70
    32
  0
VERTEX
  8
0
  5
58B
 10
44.6764
 20
69.7960
 30
0.000000
  70
    32
  0
VERTEX
  8
0
  5
58C
 10
44.7164
 20
69.8042
 30
0.000000
  70
    32
  0
VERTEX
  8
0
  5
58D
 10
44.7562
 20
69.8127
 30
0.000000
  70
    32
  0
VERTEX
  8
0
  5
58E
 10
44.7960
 20
69.8214
 30
0.000000
  70
    32
  0
VERTEX
  8
0
  5
58F
 10
44.8356
 20
69.8305
 30
0.000000
  70
    32
  0
VERTEX
  8
0
  5
590
 10
44.8752
 20
69.8398
 30
0.000000
  70
    32
  0
VERTEX
  8
0
  5
591
 10
44.9146
 20
69.8494
 30
0.000000
  70
    32
  0
VERTEX
  8
0
  5
592
 10
44.9540
 20
69.8593
 30
0.000000
  70
    32
  0
VERTEX
  8
0
  5
593
 10
44.9932
 20
69.8694
 30
0.000000
  70
    32
  0
VERTEX
  8
0
  5
594
 10
45.0323
 20
69.8798
 30
0.000000
  70
    32
  0
VERTEX
  8
0
  5
595
 10
45.0713
 20
69.8905
 30
0.000000
  70
    32
  0
VERTEX
  8
0
  5
596
 10
45.1102
 20
69.9014
 30
0.000000
  70
    32
  0
VERTEX
  8
0
  5
597
 10
45.1490
 20
69.9126
 30
0.000000
  70
    32
  0
VERTEX
  8
0
  5
598
 10
45.1876
 20
69.9241
 30
0.000000
  70
    32
  0
VERTEX
  8
0
  5
599
 10
45.2262
 20
69.9359
 30
0.000000
  70
    32
  0
VERTEX
  8
0
  5
59A
 10
45.2646
 20
69.9479
 30
0.000000
  70
    32
  0
VERTEX
  8
0
  5
59B
 10
45.3029
 20
69.9602
 30
0.000000
  70
    32
  0
VERTEX
  8
0
  5
59C
 10
45.3411
 20
69.9727
 30
0.000000
  70
    32
  0
VERTEX
  8
0
  5
59D
 10
45.3792
 20
69.9855
 30
0.000000
  70
    32
  0
VERTEX
  8
0
  5
59E
 10
45.4172
 20
69.9985
 30
0.000000
  70
    32
  0
VERTEX
  8
0
  5
59F
 10
45.4550
 20
70.0119
 30
0.000000
  70
    32
  0
VERTEX
  8
0
  5
5A0
 10
45.4927
 20
70.0254
 30
0.000000
  70
    32
  0
VERTEX
  8
0
  5
5A1
 10
45.5303
 20
70.0393
 30
0.000000
  70
    32
  0
VERTEX
  8
0
  5
5A2
 10
45.5678
 20
70.0533
 30
0.000000
  70
    32
  0
VERTEX
  8
0
  5
5A3
 10
45.6051
 20
70.0677
 30
0.000000
  70
    32
  0
VERTEX
  8
0
  5
5A4
 10
45.6424
 20
70.0823
 30
0.000000
  70
    32
  0
VERTEX
  8
0
  5
5A5
 10
45.6794
 20
70.0971
 30
0.000000
  70
    32
  0
VERTEX
  8
0
  5
5A6
 10
45.7164
 20
70.1122
 30
0.000000
  70
    32
  0
VERTEX
  8
0
  5
5A7
 10
45.7532
 20
70.1276
 30
0.000000
  70
    32
  0
VERTEX
  8
0
  5
5A8
 10
45.7899
 20
70.1432
 30
0.000000
  70
    32
  0
VERTEX
  8
0
  5
5A9
 10
45.8265
 20
70.1590
 30
0.000000
  70
    32
  0
VERTEX
  8
0
  5
5AA
 10
45.8629
 20
70.1751
 30
0.000000
  70
    32
  0
VERTEX
  8
0
  5
5AB
 10
45.8992
 20
70.1915
 30
0.000000
  70
    32
  0
VERTEX
  8
0
  5
5AC
 10
45.9354
 20
70.2080
 30
0.000000
  70
    32
  0
VERTEX
  8
0
  5
5AD
 10
45.9714
 20
70.2249
 30
0.000000
  70
    32
  0
VERTEX
  8
0
  5
5AE
 10
46.0073
 20
70.2419
 30
0.000000
  70
    32
  0
VERTEX
  8
0
  5
5AF
 10
46.0431
 20
70.2593
 30
0.000000
  70
    32
  0
VERTEX
  8
0
  5
5B0
 10
46.0787
 20
70.2768
 30
0.000000
  70
    32
  0
VERTEX
  8
0
  5
5B1
 10
46.1142
 20
70.2946
 30
0.000000
  70
    32
  0
VERTEX
  8
0
  5
5B2
 10
46.1495
 20
70.3126
 30
0.000000
  70
    32
  0
VERTEX
  8
0
  5
5B3
 10
46.1847
 20
70.3309
 30
0.000000
  70
    32
  0
VERTEX
  8
0
  5
5B4
 10
46.2197
 20
70.3494
 30
0.000000
  70
    32
  0
VERTEX
  8
0
  5
5B5
 10
46.2546
 20
70.3682
 30
0.000000
  70
    32
  0
VERTEX
  8
0
  5
5B6
 10
46.2894
 20
70.3871
 30
0.000000
  70
    32
  0
VERTEX
  8
0
  5
5B7
 10
46.3240
 20
70.4064
 30
0.000000
  70
    32
  0
VERTEX
  8
0
  5
5B8
 10
46.3585
 20
70.4258
 30
0.000000
  70
    32
  0
VERTEX
  8
0
  5
5B9
 10
46.3928
 20
70.4455
 30
0.000000
  70
    32
  0
VERTEX
  8
0
  5
5BA
 10
46.4270
 20
70.4654
 30
0.000000
  70
    32
  0
VERTEX
  8
0
  5
5BB
 10
46.4610
 20
70.4855
 30
0.000000
  70
    32
  0
VERTEX
  8
0
  5
5BC
 10
46.4948
 20
70.5059
 30
0.000000
  70
    32
  0
VERTEX
  8
0
  5
5BD
 10
46.5285
 20
70.5265
 30
0.000000
  70
    32
  0
VERTEX
  8
0
  5
5BE
 10
46.5621
 20
70.5473
 30
0.000000
  70
    32
  0
VERTEX
  8
0
  5
5BF
 10
46.5955
 20
70.5683
 30
0.000000
  70
    32
  0
VERTEX
  8
0
  5
5C0
 10
46.6287
 20
70.5896
 30
0.000000
  70
    32
  0
VERTEX
  8
0
  5
5C1
 10
46.6618
 20
70.6111
 30
0.000000
  70
    32
  0
VERTEX
  8
0
  5
5C2
 10
46.6947
 20
70.6328
 30
0.000000
  70
    32
  0
VERTEX
  8
0
  5
5C3
 10
46.7275
 20
70.6547
 30
0.000000
  70
    32
  0
VERTEX
  8
0
  5
5C4
 10
46.7601
 20
70.6769
 30
0.000000
  70
    32
  0
VERTEX
  8
0
  5
5C5
 10
46.7926
 20
70.6993
 30
0.000000
  70
    32
  0
VERTEX
  8
0
  5
5C6
 10
46.8249
 20
70.7218
 30
0.000000
  70
    32
  0
VERTEX
  8
0
  5
5C7
 10
46.8570
 20
70.7446
 30
0.000000
  70
    32
  0
VERTEX
  8
0
  5
5C8
 10
46.8889
 20
70.7677
 30
0.000000
  70
    32
  0
VERTEX
  8
0
  5
5C9
 10
46.9207
 20
70.7909
 30
0.000000
  70
    32
  0
VERTEX
  8
0
  5
5CA
 10
46.9523
 20
70.8144
 30
0.000000
  70
    32
  0
VERTEX
  8
0
  5
5CB
 10
46.9838
 20
70.8380
 30
0.000000
  70
    32
  0
VERTEX
  8
0
  5
5CC
 10
47.0151
 20
70.8619
 30
0.000000
  70
    32
  0
VERTEX
  8
0
  5
5CD
 10
47.0462
 20
70.8860
 30
0.000000
  70
    32
  0
VERTEX
  8
0
  5
5CE
 10
47.0771
 20
70.9103
 30
0.000000
  70
    32
  0
VERTEX
  8
0
  5
5CF
 10
47.1079
 20
70.9348
 30
0.000000
  70
    32
  0
VERTEX
  8
0
  5
5D0
 10
47.1385
 20
70.9595
 30
0.000000
  70
    32
  0
VERTEX
  8
0
  5
5D1
 10
47.1689
 20
70.9844
 30
0.000000
  70
    32
  0
VERTEX
  8
0
  5
5D2
 10
47.1992
 20
71.0095
 30
0.000000
  70
    32
  0
VERTEX
  8
0
  5
5D3
 10
47.2293
 20
71.0348
 30
0.000000
  70
    32
  0
VERTEX
  8
0
  5
5D4
 10
47.2592
 20
71.0603
 30
0.000000
  70
    32
  0
VERTEX
  8
0
  5
5D5
 10
47.2889
 20
71.0861
 30
0.000000
  70
    32
  0
VERTEX
  8
0
  5
5D6
 10
47.3184
 20
71.1120
 30
0.000000
  70
    32
  0
VERTEX
  8
0
  5
5D7
 10
47.3478
 20
71.1381
 30
0.000000
  70
    32
  0
VERTEX
  8
0
  5
5D8
 10
47.3769
 20
71.1644
 30
0.000000
  70
    32
  0
VERTEX
  8
0
  5
5D9
 10
47.4059
 20
71.1910
 30
0.000000
  70
    32
  0
VERTEX
  8
0
  5
5DA
 10
47.4348
 20
71.2177
 30
0.000000
  70
    32
  0
VERTEX
  8
0
  5
5DB
 10
47.4634
 20
71.2446
 30
0.000000
  70
    32
  0
VERTEX
  8
0
  5
5DC
 10
47.4918
 20
71.2717
 30
0.000000
  70
    32
  0
VERTEX
  8
0
  5
5DD
 10
47.5201
 20
71.2990
 30
0.000000
  70
    32
  0
VERTEX
  8
0
  5
5DE
 10
47.5481
 20
71.3265
 30
0.000000
  70
    32
  0
VERTEX
  8
0
  5
5DF
 10
47.5760
 20
71.3542
 30
0.000000
  70
    32
  0
SEQEND
  8
0
  5
5E0
  0
POLYLINE
  8
0
  5
5E1
  66
     1
 10
0.000000
 20
0.000000
 30
0.000000
  70
     8
  0
VERTEX
  8
0
  5
5E2
 10
43.4252
 20
83.3682
 30
0.000000
  70
    32
  0
VERTEX
  8
0
  5
5E3
 10
43.3068
 20
83.3674
 30
0.000000
  70
    32
  0
VERTEX
  8
0
  5
5E4
 10
43.1889
 20
83.3648
 30
0.000000
  70
    32
  0
VERTEX
  8
0
  5
5E5
 10
43.0713
 20
83.3605
 30
0.000000
  70
    32
  0
VERTEX
  8
0
  5
5E6
 10
42.9543
 20
83.3545
 30
0.000000
  70
    32
  0
VERTEX
  8
0
  5
5E7
 10
42.8376
 20
83.3469
 30
0.000000
  70
    32
  0
VERTEX
  8
0
  5
5E8
 10
42.7214
 20
83.3376
 30
0.000000
  70
    32
  0
VERTEX
  8
0
  5
5E9
 10
42.6057
 20
83.3266
 30
0.000000
  70
    32
  0
VERTEX
  8
0
  5
5EA
 10
42.4905
 20
83.3141
 30
0.000000
  70
    32
  0
VERTEX
  8
0
  5
5EB
 10
42.3758
 20
83.2998
 30
0.000000
  70
    32
  0
VERTEX
  8
0
  5
5EC
 10
42.2616
 20
83.2840
 30
0.000000
  70
    32
  0
VERTEX
  8
0
  5
5ED
 10
42.1479
 20
83.2665
 30
0.000000
  70
    32
  0
VERTEX
  8
0
  5
5EE
 10
42.0347
 20
83.2475
 30
0.000000
  70
    32
  0
VERTEX
  8
0
  5
5EF
 10
41.9221
 20
83.2269
 30
0.000000
  70
    32
  0
VERTEX
  8
0
  5
5F0
 10
41.8100
 20
83.2047
 30
0.000000
  70
    32
  0
VERTEX
  8
0
  5
5F1
 10
41.6985
 20
83.1809
 30
0.000000
  70
    32
  0
VERTEX
  8
0
  5
5F2
 10
41.5876
 20
83.1556
 30
0.000000
  70
    32
  0
VERTEX
  8
0
  5
5F3
 10
41.4773
 20
83.1288
 30
0.000000
  70
    32
  0
VERTEX
  8
0
  5
5F4
 10
41.3676
 20
83.1004
 30
0.000000
  70
    32
  0
VERTEX
  8
0
  5
5F5
 10
41.2585
 20
83.0705
 30
0.000000
  70
    32
  0
VERTEX
  8
0
  5
5F6
 10
41.1500
 20
83.0392
 30
0.000000
  70
    32
  0
VERTEX
  8
0
  5
5F7
 10
41.0422
 20
83.0063
 30
0.000000
  70
    32
  0
VERTEX
  8
0
  5
5F8
 10
40.9350
 20
82.9720
 30
0.000000
  70
    32
  0
VERTEX
  8
0
  5
5F9
 10
40.8285
 20
82.9362
 30
0.000000
  70
    32
  0
VERTEX
  8
0
  5
5FA
 10
40.7227
 20
82.8990
 30
0.000000
  70
    32
  0
VERTEX
  8
0
  5
5FB
 10
40.6175
 20
82.8603
 30
0.000000
  70
    32
  0
VERTEX
  8
0
  5
5FC
 10
40.5131
 20
82.8202
 30
0.000000
  70
    32
  0
VERTEX
  8
0
  5
5FD
 10
40.4093
 20
82.7786
 30
0.000000
  70
    32
  0
VERTEX
  8
0
  5
5FE
 10
40.3063
 20
82.7357
 30
0.000000
  70
    32
  0
VERTEX
  8
0
  5
5FF
 10
40.2040
 20
82.6914
 30
0.000000
  70
    32
  0
VERTEX
  8
0
  5
600
 10
40.1025
 20
82.6457
 30
0.000000
  70
    32
  0
VERTEX
  8
0
  5
601
 10
40.0017
 20
82.5986
 30
0.000000
  70
    32
  0
VERTEX
  8
0
  5
602
 10
39.9017
 20
82.5502
 30
0.000000
  70
    32
  0
VERTEX
  8
0
  5
603
 10
39.8025
 20
82.5004
 30
0.000000
  70
    32
  0
VERTEX
  8
0
  5
604
 10
39.7040
 20
82.4493
 30
0.000000
  70
    32
  0
VERTEX
  8
0
  5
605
 10
39.6064
 20
82.3968
 30
0.000000
  70
    32
  0
VERTEX
  8
0
  5
606
 10
39.5096
 20
82.3431
 30
0.000000
  70
    32
  0
VERTEX
  8
0
  5
607
 10
39.4136
 20
82.2881
 30
0.000000
  70
    32
  0
VERTEX
  8
0
  5
608
 10
39.3185
 20
82.2317
 30
0.000000
  70
    32
  0
VERTEX
  8
0
  5
609
 10
39.2242
 20
82.1741
 30
0.000000
  70
    32
  0
VERTEX
  8
0
  5
60A
 10
39.1308
 20
82.1153
 30
0.000000
  70
    32
  0
VERTEX
  8
0
  5
60B
 10
39.0382
 20
82.0552
 30
0.000000
  70
    32
  0
VERTEX
  8
0
  5
60C
 10
38.9466
 20
81.9938
 30
0.000000
  70
    32
  0
VERTEX
  8
0
  5
60D
 10
38.8558
 20
81.9313
 30
0.000000
  70
    32
  0
VERTEX
  8
0
  5
60E
 10
38.7660
 20
81.8675
 30
0.000000
  70
    32
  0
VERTEX
  8
0
  5
60F
 10
38.6770
 20
81.8025
 30
0.000000
  70
    32
  0
VERTEX
  8
0
  5
610
 10
38.5890
 20
81.7363
 30
0.000000
  70
    32
  0
VERTEX
  8
0
  5
611
 10
38.5020
 20
81.6689
 30
0.000000
  70
    32
  0
VERTEX
  8
0
  5
612
 10
38.4159
 20
81.6004
 30
0.000000
  70
    32
  0
VERTEX
  8
0
  5
613
 10
38.3308
 20
81.5307
 30
0.000000
  70
    32
  0
VERTEX
  8
0
  5
614
 10
38.2467
 20
81.4599
 30
0.000000
  70
    32
  0
VERTEX
  8
0
  5
615
 10
38.1636
 20
81.3879
 30
0.000000
  70
    32
  0
VERTEX
  8
0
  5
616
 10
38.0815
 20
81.3149
 30
0.000000
  70
    32
  0
VERTEX
  8
0
  5
617
 10
38.0004
 20
81.2407
 30
0.000000
  70
    32
  0
VERTEX
  8
0
  5
618
 10
37.9203
 20
81.1654
 30
0.000000
  70
    32
  0
VERTEX
  8
0
  5
619
 10
37.8413
 20
81.0890
 30
0.000000
  70
    32
  0
VERTEX
  8
0
  5
61A
 10
37.7633
 20
81.0116
 30
0.000000
  70
    32
  0
VERTEX
  8
0
  5
61B
 10
37.6864
 20
80.9331
 30
0.000000
  70
    32
  0
VERTEX
  8
0
  5
61C
 10
37.6106
 20
80.8535
 30
0.000000
  70
    32
  0
VERTEX
  8
0
  5
61D
 10
37.5358
 20
80.7730
 30
0.000000
  70
    32
  0
VERTEX
  8
0
  5
61E
 10
37.4622
 20
80.6913
 30
0.000000
  70
    32
  0
VERTEX
  8
0
  5
61F
 10
37.3897
 20
80.6087
 30
0.000000
  70
    32
  0
VERTEX
  8
0
  5
620
 10
37.3183
 20
80.5251
 30
0.000000
  70
    32
  0
VERTEX
  8
0
  5
621
 10
37.2480
 20
80.4405
 30
0.000000
  70
    32
  0
VERTEX
  8
0
  5
622
 10
37.1789
 20
80.3549
 30
0.000000
  70
    32
  0
VERTEX
  8
0
  5
623
 10
37.1110
 20
80.2683
 30
0.000000
  70
    32
  0
VERTEX
  8
0
  5
624
 10
37.0442
 20
80.1808
 30
0.000000
  70
    32
  0
VERTEX
  8
0
  5
625
 10
36.9786
 20
80.0924
 30
0.000000
  70
    32
  0
VERTEX
  8
0
  5
626
 10
36.9142
 20
80.0030
 30
0.000000
  70
    32
  0
VERTEX
  8
0
  5
627
 10
36.8510
 20
79.9127
 30
0.000000
  70
    32
  0
VERTEX
  8
0
  5
628
 10
36.7890
 20
79.8215
 30
0.000000
  70
    32
  0
VERTEX
  8
0
  5
629
 10
36.7283
 20
79.7294
 30
0.000000
  70
    32
  0
VERTEX
  8
0
  5
62A
 10
36.6688
 20
79.6364
 30
0.000000
  70
    32
  0
VERTEX
  8
0
  5
62B
 10
36.6106
 20
79.5425
 30
0.000000
  70
    32
  0
VERTEX
  8
0
  5
62C
 10
36.5536
 20
79.4478
 30
0.000000
  70
    32
  0
VERTEX
  8
0
  5
62D
 10
36.4980
 20
79.3523
 30
0.000000
  70
    32
  0
VERTEX
  8
0
  5
62E
 10
36.4436
 20
79.2559
 30
0.000000
  70
    32
  0
VERTEX
  8
0
  5
62F
 10
36.3905
 20
79.1586
 30
0.000000
  70
    32
  0
VERTEX
  8
0
  5
630
 10
36.3387
 20
79.0606
 30
0.000000
  70
    32
  0
VERTEX
  8
0
  5
631
 10
36.2883
 20
78.9618
 30
0.000000
  70
    32
  0
VERTEX
  8
0
  5
632
 10
36.2391
 20
78.8622
 30
0.000000
  70
    32
  0
VERTEX
  8
0
  5
633
 10
36.1914
 20
78.7618
 30
0.000000
  70
    32
  0
VERTEX
  8
0
  5
634
 10
36.1450
 20
78.6606
 30
0.000000
  70
    32
  0
VERTEX
  8
0
  5
635
 10
36.1000
 20
78.5587
 30
0.000000
  70
    32
  0
VERTEX
  8
0
  5
636
 10
36.0563
 20
78.4560
 30
0.000000
  70
    32
  0
VERTEX
  8
0
  5
637
 10
36.0141
 20
78.3527
 30
0.000000
  70
    32
  0
VERTEX
  8
0
  5
638
 10
35.9733
 20
78.2486
 30
0.000000
  70
    32
  0
VERTEX
  8
0
  5
639
 10
35.9339
 20
78.1437
 30
0.000000
  70
    32
  0
VERTEX
  8
0
  5
63A
 10
35.8959
 20
78.0383
 30
0.000000
  70
    32
  0
VERTEX
  8
0
  5
63B
 10
35.8594
 20
77.9321
 30
0.000000
  70
    32
  0
VERTEX
  8
0
  5
63C
 10
35.8243
 20
77.8252
 30
0.000000
  70
    32
  0
VERTEX
  8
0
  5
63D
 10
35.7907
 20
77.7177
 30
0.000000
  70
    32
  0
VERTEX
  8
0
  5
63E
 10
35.7586
 20
77.6096
 30
0.000000
  70
    32
  0
VERTEX
  8
0
  5
63F
 10
35.7280
 20
77.5008
 30
0.000000
  70
    32
  0
VERTEX
  8
0
  5
640
 10
35.6989
 20
77.3914
 30
0.000000
  70
    32
  0
VERTEX
  8
0
  5
641
 10
35.6713
 20
77.2814
 30
0.000000
  70
    32
  0
VERTEX
  8
0
  5
642
 10
35.6452
 20
77.1707
 30
0.000000
  70
    32
  0
VERTEX
  8
0
  5
643
 10
35.6207
 20
77.0595
 30
0.000000
  70
    32
  0
VERTEX
  8
0
  5
644
 10
35.5977
 20
76.9478
 30
0.000000
  70
    32
  0
VERTEX
  8
0
  5
645
 10
35.5763
 20
76.8354
 30
0.000000
  70
    32
  0
VERTEX
  8
0
  5
646
 10
35.5565
 20
76.7225
 30
0.000000
  70
    32
  0
VERTEX
  8
0
  5
647
 10
35.5382
 20
76.6091
 30
0.000000
  70
    32
  0
VERTEX
  8
0
  5
648
 10
35.5216
 20
76.4952
 30
0.000000
  70
    32
  0
VERTEX
  8
0
  5
649
 10
35.5065
 20
76.3807
 30
0.000000
  70
    32
  0
VERTEX
  8
0
  5
64A
 10
35.4931
 20
76.2657
 30
0.000000
  70
    32
  0
VERTEX
  8
0
  5
64B
 10
35.4813
 20
76.1502
 30
0.000000
  70
    32
  0
VERTEX
  8
0
  5
64C
 10
35.4712
 20
76.0343
 30
0.000000
  70
    32
  0
VERTEX
  8
0
  5
64D
 10
35.4627
 20
75.9179
 30
0.000000
  70
    32
  0
VERTEX
  8
0
  5
64E
 10
35.4559
 20
75.8010
 30
0.000000
  70
    32
  0
VERTEX
  8
0
  5
64F
 10
35.4508
 20
75.6837
 30
0.000000
  70
    32
  0
VERTEX
  8
0
  5
650
 10
35.4474
 20
75.5659
 30
0.000000
  70
    32
  0
VERTEX
  8
0
  5
651
 10
35.4457
 20
75.4478
 30
0.000000
  70
    32
  0
VERTEX
  8
0
  5
652
 10
35.4457
 20
75.3293
 30
0.000000
  70
    32
  0
VERTEX
  8
0
  5
653
 10
35.4474
 20
75.2111
 30
0.000000
  70
    32
  0
VERTEX
  8
0
  5
654
 10
35.4508
 20
75.0934
 30
0.000000
  70
    32
  0
VERTEX
  8
0
  5
655
 10
35.4559
 20
74.9761
 30
0.000000
  70
    32
  0
VERTEX
  8
0
  5
656
 10
35.4627
 20
74.8592
 30
0.000000
  70
    32
  0
VERTEX
  8
0
  5
657
 10
35.4712
 20
74.7428
 30
0.000000
  70
    32
  0
VERTEX
  8
0
  5
658
 10
35.4813
 20
74.6268
 30
0.000000
  70
    32
  0
VERTEX
  8
0
  5
659
 10
35.4931
 20
74.5114
 30
0.000000
  70
    32
  0
VERTEX
  8
0
  5
65A
 10
35.5065
 20
74.3964
 30
0.000000
  70
    32
  0
VERTEX
  8
0
  5
65B
 10
35.5216
 20
74.2819
 30
0.000000
  70
    32
  0
VERTEX
  8
0
  5
65C
 10
35.5382
 20
74.1680
 30
0.000000
  70
    32
  0
VERTEX
  8
0
  5
65D
 10
35.5565
 20
74.0545
 30
0.000000
  70
    32
  0
VERTEX
  8
0
  5
65E
 10
35.5763
 20
73.9417
 30
0.000000
  70
    32
  0
VERTEX
  8
0
  5
65F
 10
35.5977
 20
73.8293
 30
0.000000
  70
    32
  0
VERTEX
  8
0
  5
660
 10
35.6207
 20
73.7175
 30
0.000000
  70
    32
  0
VERTEX
  8
0
  5
661
 10
35.6452
 20
73.6063
 30
0.000000
  70
    32
  0
VERTEX
  8
0
  5
662
 10
35.6713
 20
73.4957
 30
0.000000
  70
    32
  0
VERTEX
  8
0
  5
663
 10
35.6989
 20
73.3857
 30
0.000000
  70
    32
  0
VERTEX
  8
0
  5
664
 10
35.7280
 20
73.2763
 30
0.000000
  70
    32
  0
VERTEX
  8
0
  5
665
 10
35.7586
 20
73.1675
 30
0.000000
  70
    32
  0
VERTEX
  8
0
  5
666
 10
35.7907
 20
73.0594
 30
0.000000
  70
    32
  0
VERTEX
  8
0
  5
667
 10
35.8243
 20
72.9519
 30
0.000000
  70
    32
  0
VERTEX
  8
0
  5
668
 10
35.8594
 20
72.8450
 30
0.000000
  70
    32
  0
VERTEX
  8
0
  5
669
 10
35.8959
 20
72.7388
 30
0.000000
  70
    32
  0
VERTEX
  8
0
  5
66A
 10
35.9339
 20
72.6333
 30
0.000000
  70
    32
  0
VERTEX
  8
0
  5
66B
 10
35.9733
 20
72.5285
 30
0.000000
  70
    32
  0
VERTEX
  8
0
  5
66C
 10
36.0141
 20
72.4244
 30
0.000000
  70
    32
  0
VERTEX
  8
0
  5
66D
 10
36.0563
 20
72.3211
 30
0.000000
  70
    32
  0
VERTEX
  8
0
  5
66E
 10
36.1000
 20
72.2184
 30
0.000000
  70
    32
  0
VERTEX
  8
0
  5
66F
 10
36.1450
 20
72.1165
 30
0.000000
  70
    32
  0
VERTEX
  8
0
  5
670
 10
36.1914
 20
72.0153
 30
0.000000
  70
    32
  0
VERTEX
  8
0
  5
671
 10
36.2391
 20
71.9149
 30
0.000000
  70
    32
  0
VERTEX
  8
0
  5
672
 10
36.2883
 20
71.8153
 30
0.000000
  70
    32
  0
VERTEX
  8
0
  5
673
 10
36.3387
 20
71.7165
 30
0.000000
  70
    32
  0
VERTEX
  8
0
  5
674
 10
36.3905
 20
71.6185
 30
0.000000
  70
    32
  0
VERTEX
  8
0
  5
675
 10
36.4436
 20
71.5212
 30
0.000000
  70
    32
  0
VERTEX
  8
0
  5
676
 10
36.4980
 20
71.4248
 30
0.000000
  70
    32
  0
VERTEX
  8
0
  5
677
 10
36.5536
 20
71.3293
 30
0.000000
  70
    32
  0
VERTEX
  8
0
  5
678
 10
36.6106
 20
71.2346
 30
0.000000
  70
    32
  0
VERTEX
  8
0
  5
679
 10
36.6688
 20
71.1407
 30
0.000000
  70
    32
  0
VERTEX
  8
0
  5
67A
 10
36.7283
 20
71.0477
 30
0.000000
  70
    32
  0
VERTEX
  8
0
  5
67B
 10
36.7890
 20
70.9556
 30
0.000000
  70
    32
  0
VERTEX
  8
0
  5
67C
 10
36.8510
 20
70.8644
 30
0.000000
  70
    32
  0
VERTEX
  8
0
  5
67D
 10
36.9142
 20
70.7741
 30
0.000000
  70
    32
  0
VERTEX
  8
0
  5
67E
 10
36.9786
 20
70.6847
 30
0.000000
  70
    32
  0
VERTEX
  8
0
  5
67F
 10
37.0442
 20
70.5963
 30
0.000000
  70
    32
  0
VERTEX
  8
0
  5
680
 10
37.1110
 20
70.5088
 30
0.000000
  70
    32
  0
VERTEX
  8
0
  5
681
 10
37.1789
 20
70.4222
 30
0.000000
  70
    32
  0
VERTEX
  8
0
  5
682
 10
37.2480
 20
70.3366
 30
0.000000
  70
    32
  0
VERTEX
  8
0
  5
683
 10
37.3183
 20
70.2520
 30
0.000000
  70
    32
  0
VERTEX
  8
0
  5
684
 10
37.3897
 20
70.1684
 30
0.000000
  70
    32
  0
VERTEX
  8
0
  5
685
 10
37.4622
 20
70.0858
 30
0.000000
  70
    32
  0
VERTEX
  8
0
  5
686
 10
37.5358
 20
70.0042
 30
0.000000
  70
    32
  0
VERTEX
  8
0
  5
687
 10
37.6106
 20
69.9236
 30
0.000000
  70
    32
  0
VERTEX
  8
0
  5
688
 10
37.6864
 20
69.8440
 30
0.000000
  70
    32
  0
VERTEX
  8
0
  5
689
 10
37.7633
 20
69.7655
 30
0.000000
  70
    32
  0
VERTEX
  8
0
  5
68A
 10
37.8413
 20
69.6881
 30
0.000000
  70
    32
  0
VERTEX
  8
0
  5
68B
 10
37.9203
 20
69.6117
 30
0.000000
  70
    32
  0
VERTEX
  8
0
  5
68C
 10
38.0004
 20
69.5364
 30
0.000000
  70
    32
  0
VERTEX
  8
0
  5
68D
 10
38.0815
 20
69.4623
 30
0.000000
  70
    32
  0
VERTEX
  8
0
  5
68E
 10
38.1636
 20
69.3892
 30
0.000000
  70
    32
  0
VERTEX
  8
0
  5
68F
 10
38.2467
 20
69.3172
 30
0.000000
  70
    32
  0
VERTEX
  8
0
  5
690
 10
38.3308
 20
69.2464
 30
0.000000
  70
    32
  0
VERTEX
  8
0
  5
691
 10
38.4159
 20
69.1767
 30
0.000000
  70
    32
  0
VERTEX
  8
0
  5
692
 10
38.5020
 20
69.1082
 30
0.000000
  70
    32
  0
VERTEX
  8
0
  5
693
 10
38.5890
 20
69.0408
 30
0.000000
  70
    32
  0
VERTEX
  8
0
  5
694
 10
38.6770
 20
68.9747
 30
0.000000
  70
    32
  0
VERTEX
  8
0
  5
695
 10
38.7660
 20
68.9097
 30
0.000000
  70
    32
  0
VERTEX
  8
0
  5
696
 10
38.8558
 20
68.8459
 30
0.000000
  70
    32
  0
VERTEX
  8
0
  5
697
 10
38.9466
 20
68.7833
 30
0.000000
  70
    32
  0
VERTEX
  8
0
  5
698
 10
39.0382
 20
68.7220
 30
0.000000
  70
    32
  0
VERTEX
  8
0
  5
699
 10
39.1308
 20
68.6618
 30
0.000000
  70
    32
  0
VERTEX
  8
0
  5
69A
 10
39.2242
 20
68.6030
 30
0.000000
  70
    32
  0
VERTEX
  8
0
  5
69B
 10
39.3185
 20
68.5454
 30
0.000000
  70
    32
  0
VERTEX
  8
0
  5
69C
 10
39.4136
 20
68.4891
 30
0.000000
  70
    32
  0
VERTEX
  8
0
  5
69D
 10
39.5096
 20
68.4340
 30
0.000000
  70
    32
  0
VERTEX
  8
0
  5
69E
 10
39.6064
 20
68.3803
 30
0.000000
  70
    32
  0
VERTEX
  8
0
  5
69F
 10
39.7040
 20
68.3279
 30
0.000000
  70
    32
  0
VERTEX
  8
0
  5
6A0
 10
39.8025
 20
68.2768
 30
0.000000
  70
    32
  0
VERTEX
  8
0
  5
6A1
 10
39.9017
 20
68.2270
 30
0.000000
  70
    32
  0
VERTEX
  8
0
  5
6A2
 10
40.0017
 20
68.1786
 30
0.000000
  70
    32
  0
VERTEX
  8
0
  5
6A3
 10
40.1025
 20
68.1315
 30
0.000000
  70
    32
  0
VERTEX
  8
0
  5
6A4
 10
40.2040
 20
68.0858
 30
0.000000
  70
    32
  0
VERTEX
  8
0
  5
6A5
 10
40.3063
 20
68.0414
 30
0.000000
  70
    32
  0
VERTEX
  8
0
  5
6A6
 10
40.4093
 20
67.9985
 30
0.000000
  70
    32
  0
VERTEX
  8
0
  5
6A7
 10
40.5131
 20
67.9570
 30
0.000000
  70
    32
  0
VERTEX
  8
0
  5
6A8
 10
40.6175
 20
67.9169
 30
0.000000
  70
    32
  0
VERTEX
  8
0
  5
6A9
 10
40.7227
 20
67.8782
 30
0.000000
  70
    32
  0
VERTEX
  8
0
  5
6AA
 10
40.8285
 20
67.8409
 30
0.000000
  70
    32
  0
VERTEX
  8
0
  5
6AB
 10
40.9350
 20
67.8052
 30
0.000000
  70
    32
  0
VERTEX
  8
0
  5
6AC
 10
41.0422
 20
67.7708
 30
0.000000
  70
    32
  0
VERTEX
  8
0
  5
6AD
 10
41.1500
 20
67.7380
 30
0.000000
  70
    32
  0
VERTEX
  8
0
  5
6AE
 10
41.2585
 20
67.7066
 30
0.000000
  70
    32
  0
VERTEX
  8
0
  5
6AF
 10
41.3676
 20
67.6767
 30
0.000000
  70
    32
  0
VERTEX
  8
0
  5
6B0
 10
41.4773
 20
67.6484
 30
0.000000
  70
    32
  0
VERTEX
  8
0
  5
6B1
 10
41.5876
 20
67.6215
 30
0.000000
  70
    32
  0
VERTEX
  8
0
  5
6B2
 10
41.6985
 20
67.5962
 30
0.000000
  70
    32
  0
VERTEX
  8
0
  5
6B3
 10
41.8100
 20
67.5725
 30
0.000000
  70
    32
  0
VERTEX
  8
0
  5
6B4
 10
41.9221
 20
67.5503
 30
0.000000
  70
    32
  0
VERTEX
  8
0
  5
6B5
 10
42.0347
 20
67.5297
 30
0.000000
  70
    32
  0
VERTEX
  8
0
  5
6B6
 10
42.1479
 20
67.5106
 30
0.000000
  70
    32
  0
VERTEX
  8
0
  5
6B7
 10
42.2616
 20
67.4932
 30
0.000000
  70
    32
  0
VERTEX
  8
0
  5
6B8
 10
42.3758
 20
67.4773
 30
0.000000
  70
    32
  0
VERTEX
  8
0
  5
6B9
 10
42.4905
 20
67.4631
 30
0.000000
  70
    32
  0
VERTEX
  8
0
  5
6BA
 10
42.6057
 20
67.4505
 30
0.000000
  70
    32
  0
VERTEX
  8
0
  5
6BB
 10
42.7214
 20
67.4396
 30
0.000000
  70
    32
  0
VERTEX
  8
0
  5
6BC
 10
42.8376
 20
67.4303
 30
0.000000
  70
    32
  0
VERTEX
  8
0
  5
6BD
 10
42.9543
 20
67.4226
 30
0.000000
  70
    32
  0
VERTEX
  8
0
  5
6BE
 10
43.0713
 20
67.4167
 30
0.000000
  70
    32
  0
VERTEX
  8
0
  5
6BF
 10
43.1889
 20
67.4124
 30
0.000000
  70
    32
  0
VERTEX
  8
0
  5
6C0
 10
43.3068
 20
67.4098
 30
0.000000
  70
    32
  0
VERTEX
  8
0
  5
6C1
 10
43.4252
 20
67.4089
 30
0.000000
  70
    32
  0
SEQEND
  8
0
  5
6C2
  0
POLYLINE
  8
0
  5
6C3
  62
1
  66
     1
 10
0.000000
 20
0.000000
 30
0.000000
  70
     8
  0
VERTEX
  8
0
  5
6C4
 10
46.2678
 20
79.7900
 30
0.000000
  70
    32
  0
VERTEX
  8
0
  5
6C5
 10
46.2446
 20
79.8044
 30
0.000000
  70
    32
  0
VERTEX
  8
0
  5
6C6
 10
46.2212
 20
79.8187
 30
0.000000
  70
    32
  0
VERTEX
  8
0
  5
6C7
 10
46.1978
 20
79.8328
 30
0.000000
  70
    32
  0
VERTEX
  8
0
  5
6C8
 10
46.1742
 20
79.8468
 30
0.000000
  70
    32
  0
VERTEX
  8
0
  5
6C9
 10
46.1506
 20
79.8607
 30
0.000000
  70
    32
  0
VERTEX
  8
0
  5
6CA
 10
46.1270
 20
79.8745
 30
0.000000
  70
    32
  0
VERTEX
  8
0
  5
6CB
 10
46.1032
 20
79.8881
 30
0.000000
  70
    32
  0
VERTEX
  8
0
  5
6CC
 10
46.0793
 20
79.9016
 30
0.000000
  70
    32
  0
VERTEX
  8
0
  5
6CD
 10
46.0554
 20
79.9150
 30
0.000000
  70
    32
  0
VERTEX
  8
0
  5
6CE
 10
46.0314
 20
79.9283
 30
0.000000
  70
    32
  0
VERTEX
  8
0
  5
6CF
 10
46.0074
 20
79.9415
 30
0.000000
  70
    32
  0
VERTEX
  8
0
  5
6D0
 10
45.9832
 20
79.9545
 30
0.000000
  70
    32
  0
VERTEX
  8
0
  5
6D1
 10
45.9590
 20
79.9674
 30
0.000000
  70
    32
  0
VERTEX
  8
0
  5
6D2
 10
45.9347
 20
79.9802
 30
0.000000
  70
    32
  0
VERTEX
  8
0
  5
6D3
 10
45.9103
 20
79.9928
 30
0.000000
  70
    32
  0
VERTEX
  8
0
  5
6D4
 10
45.8858
 20
80.0054
 30
0.000000
  70
    32
  0
VERTEX
  8
0
  5
6D5
 10
45.8613
 20
80.0178
 30
0.000000
  70
    32
  0
VERTEX
  8
0
  5
6D6
 10
45.8367
 20
80.0300
 30
0.000000
  70
    32
  0
VERTEX
  8
0
  5
6D7
 10
45.8120
 20
80.0422
 30
0.000000
  70
    32
  0
VERTEX
  8
0
  5
6D8
 10
45.7873
 20
80.0542
 30
0.000000
  70
    32
  0
VERTEX
  8
0
  5
6D9
 10
45.7624
 20
80.0661
 30
0.000000
  70
    32
  0
VERTEX
  8
0
  5
6DA
 10
45.7375
 20
80.0779
 30
0.000000
  70
    32
  0
VERTEX
  8
0
  5
6DB
 10
45.7126
 20
80.0895
 30
0.000000
  70
    32
  0
VERTEX
  8
0
  5
6DC
 10
45.6875
 20
80.1010
 30
0.000000
  70
    32
  0
VERTEX
  8
0
  5
6DD
 10
45.6624
 20
80.1124
 30
0.000000
  70
    32
  0
VERTEX
  8
0
  5
6DE
 10
45.6372
 20
80.1236
 30
0.000000
  70
    32
  0
VERTEX
  8
0
  5
6DF
 10
45.6120
 20
80.1347
 30
0.000000
  70
    32
  0
VERTEX
  8
0
  5
6E0
 10
45.5866
 20
80.1457
 30
0.000000
  70
    32
  0
VERTEX
  8
0
  5
6E1
 10
45.5612
 20
80.1566
 30
0.000000
  70
    32
  0
VERTEX
  8
0
  5
6E2
 10
45.5358
 20
80.1673
 30
0.000000
  70
    32
  0
VERTEX
  8
0
  5
6E3
 10
45.5102
 20
80.1779
 30
0.000000
  70
    32
  0
VERTEX
  8
0
  5
6E4
 10
45.4846
 20
80.1883
 30
0.000000
  70
    32
  0
VERTEX
  8
0
  5
6E5
 10
45.4589
 20
80.1987
 30
0.000000
  70
    32
  0
VERTEX
  8
0
  5
6E6
 10
45.4332
 20
80.2089
 30
0.000000
  70
    32
  0
VERTEX
  8
0
  5
6E7
 10
45.4074
 20
80.2189
 30
0.000000
  70
    32
  0
VERTEX
  8
0
  5
6E8
 10
45.3815
 20
80.2288
 30
0.000000
  70
    32
  0
VERTEX
  8
0
  5
6E9
 10
45.3556
 20
80.2386
 30
0.000000
  70
    32
  0
VERTEX
  8
0
  5
6EA
 10
45.3296
 20
80.2483
 30
0.000000
  70
    32
  0
VERTEX
  8
0
  5
6EB
 10
45.3035
 20
80.2578
 30
0.000000
  70
    32
  0
VERTEX
  8
0
  5
6EC
 10
45.2774
 20
80.2672
 30
0.000000
  70
    32
  0
VERTEX
  8
0
  5
6ED
 10
45.2512
 20
80.2764
 30
0.000000
  70
    32
  0
VERTEX
  8
0
  5
6EE
 10
45.2249
 20
80.2855
 30
0.000000
  70
    32
  0
VERTEX
  8
0
  5
6EF
 10
45.1986
 20
80.2945
 30
0.000000
  70
    32
  0
VERTEX
  8
0
  5
6F0
 10
45.1722
 20
80.3033
 30
0.000000
  70
    32
  0
VERTEX
  8
0
  5
6F1
 10
45.1457
 20
80.3120
 30
0.000000
  70
    32
  0
VERTEX
  8
0
  5
6F2
 10
45.1192
 20
80.3206
 30
0.000000
  70
    32
  0
VERTEX
  8
0
  5
6F3
 10
45.0926
 20
80.3290
 30
0.000000
  70
    32
  0
VERTEX
  8
0
  5
6F4
 10
45.0660
 20
80.3373
 30
0.000000
  70
    32
  0
VERTEX
  8
0
  5
6F5
 10
45.0392
 20
80.3454
 30
0.000000
  70
    32
  0
VERTEX
  8
0
  5
6F6
 10
45.0125
 20
80.3534
 30
0.000000
  70
    32
  0
VERTEX
  8
0
  5
6F7
 10
44.9857
 20
80.3613
 30
0.000000
  70
    32
  0
VERTEX
  8
0
  5
6F8
 10
44.9588
 20
80.3690
 30
0.000000
  70
    32
  0
VERTEX
  8
0
  5
6F9
 10
44.9318
 20
80.3766
 30
0.000000
  70
    32
  0
VERTEX
  8
0
  5
6FA
 10
44.9048
 20
80.3840
 30
0.000000
  70
    32
  0
VERTEX
  8
0
  5
6FB
 10
44.8777
 20
80.3913
 30
0.000000
  70
    32
  0
VERTEX
  8
0
  5
6FC
 10
44.8506
 20
80.3984
 30
0.000000
  70
    32
  0
VERTEX
  8
0
  5
6FD
 10
44.8234
 20
80.4054
 30
0.000000
  70
    32
  0
VERTEX
  8
0
  5
6FE
 10
44.7962
 20
80.4123
 30
0.000000
  70
    32
  0
VERTEX
  8
0
  5
6FF
 10
44.7689
 20
80.4190
 30
0.000000
  70
    32
  0
VERTEX
  8
0
  5
700
 10
44.7416
 20
80.4256
 30
0.000000
  70
    32
  0
VERTEX
  8
0
  5
701
 10
44.7141
 20
80.4320
 30
0.000000
  70
    32
  0
VERTEX
  8
0
  5
702
 10
44.6867
 20
80.4383
 30
0.000000
  70
    32
  0
VERTEX
  8
0
  5
703
 10
44.6592
 20
80.4444
 30
0.000000
  70
    32
  0
VERTEX
  8
0
  5
704
 10
44.6316
 20
80.4504
 30
0.000000
  70
    32
  0
VERTEX
  8
0
  5
705
 10
44.6040
 20
80.4562
 30
0.000000
  70
    32
  0
VERTEX
  8
0
  5
706
 10
44.5763
 20
80.4619
 30
0.000000
  70
    32
  0
VERTEX
  8
0
  5
707
 10
44.5485
 20
80.4675
 30
0.000000
  70
    32
  0
VERTEX
  8
0
  5
708
 10
44.5208
 20
80.4729
 30
0.000000
  70
    32
  0
VERTEX
  8
0
  5
709
 10
44.4929
 20
80.4781
 30
0.000000
  70
    32
  0
VERTEX
  8
0
  5
70A
 10
44.4650
 20
80.4832
 30
0.000000
  70
    32
  0
VERTEX
  8
0
  5
70B
 10
44.4371
 20
80.4882
 30
0.000000
  70
    32
  0
VERTEX
  8
0
  5
70C
 10
44.4091
 20
80.4930
 30
0.000000
  70
    32
  0
VERTEX
  8
0
  5
70D
 10
44.3810
 20
80.4976
 30
0.000000
  70
    32
  0
VERTEX
  8
0
  5
70E
 10
44.3529
 20
80.5021
 30
0.000000
  70
    32
  0
VERTEX
  8
0
  5
70F
 10
44.3248
 20
80.5065
 30
0.000000
  70
    32
  0
VERTEX
  8
0
  5
710
 10
44.2966
 20
80.5107
 30
0.000000
  70
    32
  0
VERTEX
  8
0
  5
711
 10
44.2683
 20
80.5147
 30
0.000000
  70
    32
  0
VERTEX
  8
0
  5
712
 10
44.2400
 20
80.5186
 30
0.000000
  70
    32
  0
VERTEX
  8
0
  5
713
 10
44.2117
 20
80.5224
 30
0.000000
  70
    32
  0
VERTEX
  8
0
  5
714
 10
44.1833
 20
80.5260
 30
0.000000
  70
    32
  0
VERTEX
  8
0
  5
715
 10
44.1549
 20
80.5294
 30
0.000000
  70
    32
  0
VERTEX
  8
0
  5
716
 10
44.1264
 20
80.5327
 30
0.000000
  70
    32
  0
VERTEX
  8
0
  5
717
 10
44.0978
 20
80.5358
 30
0.000000
  70
    32
  0
VERTEX
  8
0
  5
718
 10
44.0693
 20
80.5388
 30
0.000000
  70
    32
  0
VERTEX
  8
0
  5
719
 10
44.0406
 20
80.5416
 30
0.000000
  70
    32
  0
VERTEX
  8
0
  5
71A
 10
44.0120
 20
80.5442
 30
0.000000
  70
    32
  0
VERTEX
  8
0
  5
71B
 10
43.9832
 20
80.5468
 30
0.000000
  70
    32
  0
VERTEX
  8
0
  5
71C
 10
43.9545
 20
80.5491
 30
0.000000
  70
    32
  0
VERTEX
  8
0
  5
71D
 10
43.9257
 20
80.5513
 30
0.000000
  70
    32
  0
VERTEX
  8
0
  5
71E
 10
43.8968
 20
80.5533
 30
0.000000
  70
    32
  0
VERTEX
  8
0
  5
71F
 10
43.8679
 20
80.5552
 30
0.000000
  70
    32
  0
VERTEX
  8
0
  5
720
 10
43.8390
 20
80.5569
 30
0.000000
  70
    32
  0
VERTEX
  8
0
  5
721
 10
43.8100
 20
80.5585
 30
0.000000
  70
    32
  0
VERTEX
  8
0
  5
722
 10
43.7810
 20
80.5599
 30
0.000000
  70
    32
  0
VERTEX
  8
0
  5
723
 10
43.7519
 20
80.5611
 30
0.000000
  70
    32
  0
VERTEX
  8
0
  5
724
 10
43.7228
 20
80.5622
 30
0.000000
  70
    32
  0
VERTEX
  8
0
  5
725
 10
43.6937
 20
80.5631
 30
0.000000
  70
    32
  0
VERTEX
  8
0
  5
726
 10
43.6645
 20
80.5639
 30
0.000000
  70
    32
  0
VERTEX
  8
0
  5
727
 10
43.6353
 20
80.5645
 30
0.000000
  70
    32
  0
VERTEX
  8
0
  5
728
 10
43.6060
 20
80.5649
 30
0.000000
  70
    32
  0
VERTEX
  8
0
  5
729
 10
43.5767
 20
80.5652
 30
0.000000
  70
    32
  0
VERTEX
  8
0
  5
72A
 10
43.5474
 20
80.5653
 30
0.000000
  70
    32
  0
VERTEX
  8
0
  5
72B
 10
43.4745
 20
80.5649
 30
0.000000
  70
    32
  0
VERTEX
  8
0
  5
72C
 10
43.3909
 20
80.5632
 30
0.000000
  70
    32
  0
VERTEX
  8
0
  5
72D
 10
43.3078
 20
80.5601
 30
0.000000
  70
    32
  0
VERTEX
  8
0
  5
72E
 10
43.2249
 20
80.5558
 30
0.000000
  70
    32
  0
VERTEX
  8
0
  5
72F
 10
43.1424
 20
80.5502
 30
0.000000
  70
    32
  0
VERTEX
  8
0
  5
730
 10
43.0603
 20
80.5433
 30
0.000000
  70
    32
  0
VERTEX
  8
0
  5
731
 10
42.9785
 20
80.5351
 30
0.000000
  70
    32
  0
VERTEX
  8
0
  5
732
 10
42.8971
 20
80.5256
 30
0.000000
  70
    32
  0
VERTEX
  8
0
  5
733
 10
42.8161
 20
80.5149
 30
0.000000
  70
    32
  0
VERTEX
  8
0
  5
734
 10
42.7355
 20
80.5030
 30
0.000000
  70
    32
  0
VERTEX
  8
0
  5
735
 10
42.6553
 20
80.4898
 30
0.000000
  70
    32
  0
VERTEX
  8
0
  5
736
 10
42.5756
 20
80.4754
 30
0.000000
  70
    32
  0
VERTEX
  8
0
  5
737
 10
42.4962
 20
80.4598
 30
0.000000
  70
    32
  0
VERTEX
  8
0
  5
738
 10
42.4173
 20
80.4429
 30
0.000000
  70
    32
  0
VERTEX
  8
0
  5
739
 10
42.3389
 20
80.4249
 30
0.000000
  70
    32
  0
VERTEX
  8
0
  5
73A
 10
42.2609
 20
80.4057
 30
0.000000
  70
    32
  0
VERTEX
  8
0
  5
73B
 10
42.1833
 20
80.3853
 30
0.000000
  70
    32
  0
VERTEX
  8
0
  5
73C
 10
42.1063
 20
80.3638
 30
0.000000
  70
    32
  0
VERTEX
  8
0
  5
73D
 10
42.0297
 20
80.3411
 30
0.000000
  70
    32
  0
VERTEX
  8
0
  5
73E
 10
41.9537
 20
80.3173
 30
0.000000
  70
    32
  0
VERTEX
  8
0
  5
73F
 10
41.8781
 20
80.2923
 30
0.000000
  70
    32
  0
VERTEX
  8
0
  5
740
 10
41.8031
 20
80.2662
 30
0.000000
  70
    32
  0
VERTEX
  8
0
  5
741
 10
41.7286
 20
80.2390
 30
0.000000
  70
    32
  0
VERTEX
  8
0
  5
742
 10
41.6546
 20
80.2107
 30
0.000000
  70
    32
  0
VERTEX
  8
0
  5
743
 10
41.5812
 20
80.1813
 30
0.000000
  70
    32
  0
VERTEX
  8
0
  5
744
 10
41.5083
 20
80.1508
 30
0.000000
  70
    32
  0
VERTEX
  8
0
  5
745
 10
41.4360
 20
80.1192
 30
0.000000
  70
    32
  0
VERTEX
  8
0
  5
746
 10
41.3643
 20
80.0866
 30
0.000000
  70
    32
  0
VERTEX
  8
0
  5
747
 10
41.2932
 20
80.0529
 30
0.000000
  70
    32
  0
VERTEX
  8
0
  5
748
 10
41.2227
 20
80.0182
 30
0.000000
  70
    32
  0
VERTEX
  8
0
  5
749
 10
41.1527
 20
79.9824
 30
0.000000
  70
    32
  0
VERTEX
  8
0
  5
74A
 10
41.0834
 20
79.9457
 30
0.000000
  70
    32
  0
VERTEX
  8
0
  5
74B
 10
41.0148
 20
79.9079
 30
0.000000
  70
    32
  0
VERTEX
  8
0
  5
74C
 10
40.9467
 20
79.8691
 30
0.000000
  70
    32
  0
VERTEX
  8
0
  5
74D
 10
40.8793
 20
79.8293
 30
0.000000
  70
    32
  0
VERTEX
  8
0
  5
74E
 10
40.8126
 20
79.7885
 30
0.000000
  70
    32
  0
VERTEX
  8
0
  5
74F
 10
40.7466
 20
79.7467
 30
0.000000
  70
    32
  0
VERTEX
  8
0
  5
750
 10
40.6812
 20
79.7040
 30
0.000000
  70
    32
  0
VERTEX
  8
0
  5
751
 10
40.6165
 20
79.6604
 30
0.000000
  70
    32
  0
VERTEX
  8
0
  5
752
 10
40.5525
 20
79.6157
 30
0.000000
  70
    32
  0
VERTEX
  8
0
  5
753
 10
40.4892
 20
79.5702
 30
0.000000
  70
    32
  0
VERTEX
  8
0
  5
754
 10
40.4266
 20
79.5237
 30
0.000000
  70
    32
  0
VERTEX
  8
0
  5
755
 10
40.3648
 20
79.4763
 30
0.000000
  70
    32
  0
VERTEX
  8
0
  5
756
 10
40.3037
 20
79.4281
 30
0.000000
  70
    32
  0
VERTEX
  8
0
  5
757
 10
40.2434
 20
79.3789
 30
0.000000
  70
    32
  0
VERTEX
  8
0
  5
758
 10
40.1838
 20
79.3288
 30
0.000000
  70
    32
  0
VERTEX
  8
0
  5
759
 10
40.1249
 20
79.2779
 30
0.000000
  70
    32
  0
VERTEX
  8
0
  5
75A
 10
40.0669
 20
79.2261
 30
0.000000
  70
    32
  0
VERTEX
  8
0
  5
75B
 10
40.0096
 20
79.1734
 30
0.000000
  70
    32
  0
VERTEX
  8
0
  5
75C
 10
39.9532
 20
79.1199
 30
0.000000
  70
    32
  0
VERTEX
  8
0
  5
75D
 10
39.8975
 20
79.0656
 30
0.000000
  70
    32
  0
VERTEX
  8
0
  5
75E
 10
39.8427
 20
79.0104
 30
0.000000
  70
    32
  0
VERTEX
  8
0
  5
75F
 10
39.7887
 20
78.9544
 30
0.000000
  70
    32
  0
VERTEX
  8
0
  5
760
 10
39.7355
 20
78.8976
 30
0.000000
  70
    32
  0
VERTEX
  8
0
  5
761
 10
39.6832
 20
78.8401
 30
0.000000
  70
    32
  0
VERTEX
  8
0
  5
762
 10
39.6317
 20
78.7817
 30
0.000000
  70
    32
  0
VERTEX
  8
0
  5
763
 10
39.5811
 20
78.7226
 30
0.000000
  70
    32
  0
VERTEX
  8
0
  5
764
 10
39.5314
 20
78.6627
 30
0.000000
  70
    32
  0
VERTEX
  8
0
  5
765
 10
39.4826
 20
78.6020
 30
0.000000
  70
    32
  0
VERTEX
  8
0
  5
766
 10
39.4347
 20
78.5406
 30
0.000000
  70
    32
  0
VERTEX
  8
0
  5
767
 10
39.3876
 20
78.4785
 30
0.000000
  70
    32
  0
VERTEX
  8
0
  5
768
 10
39.3415
 20
78.4156
 30
0.000000
  70
    32
  0
VERTEX
  8
0
  5
769
 10
39.2964
 20
78.3521
 30
0.000000
  70
    32
  0
VERTEX
  8
0
  5
76A
 10
39.2521
 20
78.2878
 30
0.000000
  70
    32
  0
VERTEX
  8
0
  5
76B
 10
39.2088
 20
78.2228
 30
0.000000
  70
    32
  0
VERTEX
  8
0
  5
76C
 10
39.1665
 20
78.1572
 30
0.000000
  70
    32
  0
VERTEX
  8
0
  5
76D
 10
39.1251
 20
78.0908
 30
0.000000
  70
    32
  0
VERTEX
  8
0
  5
76E
 10
39.0847
 20
78.0239
 30
0.000000
  70
    32
  0
VERTEX
  8
0
  5
76F
 10
39.0453
 20
77.9562
 30
0.000000
  70
    32
  0
VERTEX
  8
0
  5
770
 10
39.0069
 20
77.8879
 30
0.000000
  70
    32
  0
VERTEX
  8
0
  5
771
 10
38.9696
 20
77.8190
 30
0.000000
  70
    32
  0
VERTEX
  8
0
  5
772
 10
38.9332
 20
77.7494
 30
0.000000
  70
    32
  0
VERTEX
  8
0
  5
773
 10
38.8978
 20
77.6793
 30
0.000000
  70
    32
  0
VERTEX
  8
0
  5
774
 10
38.8635
 20
77.6085
 30
0.000000
  70
    32
  0
VERTEX
  8
0
  5
775
 10
38.8303
 20
77.5371
 30
0.000000
  70
    32
  0
VERTEX
  8
0
  5
776
 10
38.7981
 20
77.4652
 30
0.000000
  70
    32
  0
VERTEX
  8
0
  5
777
 10
38.7669
 20
77.3927
 30
0.000000
  70
    32
  0
VERTEX
  8
0
  5
778
 10
38.7369
 20
77.3196
 30
0.000000
  70
    32
  0
VERTEX
  8
0
  5
779
 10
38.7079
 20
77.2459
 30
0.000000
  70
    32
  0
VERTEX
  8
0
  5
77A
 10
38.6800
 20
77.1718
 30
0.000000
  70
    32
  0
VERTEX
  8
0
  5
77B
 10
38.6533
 20
77.0970
 30
0.000000
  70
    32
  0
VERTEX
  8
0
  5
77C
 10
38.6276
 20
77.0218
 30
0.000000
  70
    32
  0
VERTEX
  8
0
  5
77D
 10
38.6031
 20
76.9460
 30
0.000000
  70
    32
  0
VERTEX
  8
0
  5
77E
 10
38.5797
 20
76.8698
 30
0.000000
  70
    32
  0
VERTEX
  8
0
  5
77F
 10
38.5575
 20
76.7930
 30
0.000000
  70
    32
  0
VERTEX
  8
0
  5
780
 10
38.5364
 20
76.7158
 30
0.000000
  70
    32
  0
VERTEX
  8
0
  5
781
 10
38.5165
 20
76.6380
 30
0.000000
  70
    32
  0
VERTEX
  8
0
  5
782
 10
38.4978
 20
76.5599
 30
0.000000
  70
    32
  0
VERTEX
  8
0
  5
783
 10
38.4802
 20
76.4812
 30
0.000000
  70
    32
  0
VERTEX
  8
0
  5
784
 10
38.4639
 20
76.4021
 30
0.000000
  70
    32
  0
VERTEX
  8
0
  5
785
 10
38.4488
 20
76.3226
 30
0.000000
  70
    32
  0
VERTEX
  8
0
  5
786
 10
38.4348
 20
76.2427
 30
0.000000
  70
    32
  0
VERTEX
  8
0
  5
787
 10
38.4221
 20
76.1623
 30
0.000000
  70
    32
  0
VERTEX
  8
0
  5
788
 10
38.4107
 20
76.0816
 30
0.000000
  70
    32
  0
VERTEX
  8
0
  5
789
 10
38.4005
 20
76.0004
 30
0.000000
  70
    32
  0
VERTEX
  8
0
  5
78A
 10
38.3915
 20
75.9189
 30
0.000000
  70
    32
  0
VERTEX
  8
0
  5
78B
 10
38.3839
 20
75.8369
 30
0.000000
  70
    32
  0
VERTEX
  8
0
  5
78C
 10
38.3775
 20
75.7547
 30
0.000000
  70
    32
  0
VERTEX
  8
0
  5
78D
 10
38.3723
 20
75.6720
 30
0.000000
  70
    32
  0
VERTEX
  8
0
  5
78E
 10
38.3685
 20
75.5890
 30
0.000000
  70
    32
  0
VERTEX
  8
0
  5
78F
 10
38.3660
 20
75.5057
 30
0.000000
  70
    32
  0
VERTEX
  8
0
  5
790
 10
38.3648
 20
75.4221
 30
0.000000
  70
    32
  0
VERTEX
  8
0
  5
791
 10
38.3649
 20
75.3382
 30
0.000000
  70
    32
  0
VERTEX
  8
0
  5
792
 10
38.3664
 20
75.2547
 30
0.000000
  70
    32
  0
VERTEX
  8
0
  5
793
 10
38.3692
 20
75.1714
 30
0.000000
  70
    32
  0
VERTEX
  8
0
  5
794
 10
38.3733
 20
75.0885
 30
0.000000
  70
    32
  0
VERTEX
  8
0
  5
795
 10
38.3786
 20
75.0059
 30
0.000000
  70
    32
  0
VERTEX
  8
0
  5
796
 10
38.3853
 20
74.9237
 30
0.000000
  70
    32
  0
VERTEX
  8
0
  5
797
 10
38.3932
 20
74.8419
 30
0.000000
  70
    32
  0
VERTEX
  8
0
  5
798
 10
38.4024
 20
74.7604
 30
0.000000
  70
    32
  0
VERTEX
  8
0
  5
799
 10
38.4129
 20
74.6793
 30
0.000000
  70
    32
  0
VERTEX
  8
0
  5
79A
 10
38.4246
 20
74.5987
 30
0.000000
  70
    32
  0
VERTEX
  8
0
  5
79B
 10
38.4375
 20
74.5184
 30
0.000000
  70
    32
  0
VERTEX
  8
0
  5
79C
 10
38.4517
 20
74.4385
 30
0.000000
  70
    32
  0
VERTEX
  8
0
  5
79D
 10
38.4671
 20
74.3591
 30
0.000000
  70
    32
  0
VERTEX
  8
0
  5
79E
 10
38.4837
 20
74.2801
 30
0.000000
  70
    32
  0
VERTEX
  8
0
  5
79F
 10
38.5014
 20
74.2016
 30
0.000000
  70
    32
  0
VERTEX
  8
0
  5
7A0
 10
38.5204
 20
74.1235
 30
0.000000
  70
    32
  0
VERTEX
  8
0
  5
7A1
 10
38.5405
 20
74.0459
 30
0.000000
  70
    32
  0
VERTEX
  8
0
  5
7A2
 10
38.5618
 20
73.9687
 30
0.000000
  70
    32
  0
VERTEX
  8
0
  5
7A3
 10
38.5843
 20
73.8920
 30
0.000000
  70
    32
  0
VERTEX
  8
0
  5
7A4
 10
38.6079
 20
73.8159
 30
0.000000
  70
    32
  0
VERTEX
  8
0
  5
7A5
 10
38.6327
 20
73.7402
 30
0.000000
  70
    32
  0
VERTEX
  8
0
  5
7A6
 10
38.6585
 20
73.6651
 30
0.000000
  70
    32
  0
VERTEX
  8
0
  5
7A7
 10
38.6855
 20
73.5905
 30
0.000000
  70
    32
  0
VERTEX
  8
0
  5
7A8
 10
38.7136
 20
73.5164
 30
0.000000
  70
    32
  0
VERTEX
  8
0
  5
7A9
 10
38.7428
 20
73.4429
 30
0.000000
  70
    32
  0
VERTEX
  8
0
  5
7AA
 10
38.7731
 20
73.3699
 30
0.000000
  70
    32
  0
VERTEX
  8
0
  5
7AB
 10
38.8044
 20
73.2975
 30
0.000000
  70
    32
  0
VERTEX
  8
0
  5
7AC
 10
38.8368
 20
73.2256
 30
0.000000
  70
    32
  0
VERTEX
  8
0
  5
7AD
 10
38.8703
 20
73.1544
 30
0.000000
  70
    32
  0
VERTEX
  8
0
  5
7AE
 10
38.9048
 20
73.0838
 30
0.000000
  70
    32
  0
VERTEX
  8
0
  5
7AF
 10
38.9404
 20
73.0137
 30
0.000000
  70
    32
  0
VERTEX
  8
0
  5
7B0
 10
38.9770
 20
72.9443
 30
0.000000
  70
    32
  0
VERTEX
  8
0
  5
7B1
 10
39.0145
 20
72.8755
 30
0.000000
  70
    32
  0
VERTEX
  8
0
  5
7B2
 10
39.0531
 20
72.8073
 30
0.000000
  70
    32
  0
VERTEX
  8
0
  5
7B3
 10
39.0927
 20
72.7398
 30
0.000000
  70
    32
  0
VERTEX
  8
0
  5
7B4
 10
39.1333
 20
72.6730
 30
0.000000
  70
    32
  0
VERTEX
  8
0
  5
7B5
 10
39.1749
 20
72.6068
 30
0.000000
  70
    32
  0
VERTEX
  8
0
  5
7B6
 10
39.2174
 20
72.5412
 30
0.000000
  70
    32
  0
VERTEX
  8
0
  5
7B7
 10
39.2609
 20
72.4764
 30
0.000000
  70
    32
  0
VERTEX
  8
0
  5
7B8
 10
39.3053
 20
72.4123
 30
0.000000
  70
    32
  0
VERTEX
  8
0
  5
7B9
 10
39.3507
 20
72.3488
 30
0.000000
  70
    32
  0
VERTEX
  8
0
  5
7BA
 10
39.3970
 20
72.2861
 30
0.000000
  70
    32
  0
VERTEX
  8
0
  5
7BB
 10
39.4442
 20
72.2242
 30
0.000000
  70
    32
  0
VERTEX
  8
0
  5
7BC
 10
39.4923
 20
72.1629
 30
0.000000
  70
    32
  0
VERTEX
  8
0
  5
7BD
 10
39.5413
 20
72.1024
 30
0.000000
  70
    32
  0
VERTEX
  8
0
  5
7BE
 10
39.5912
 20
72.0427
 30
0.000000
  70
    32
  0
VERTEX
  8
0
  5
7BF
 10
39.6419
 20
71.9837
 30
0.000000
  70
    32
  0
VERTEX
  8
0
  5
7C0
 10
39.6936
 20
71.9255
 30
0.000000
  70
    32
  0
VERTEX
  8
0
  5
7C1
 10
39.7461
 20
71.8681
 30
0.000000
  70
    32
  0
VERTEX
  8
0
  5
7C2
 10
39.7994
 20
71.8114
 30
0.000000
  70
    32
  0
VERTEX
  8
0
  5
7C3
 10
39.8536
 20
71.7556
 30
0.000000
  70
    32
  0
VERTEX
  8
0
  5
7C4
 10
39.9086
 20
71.7006
 30
0.000000
  70
    32
  0
VERTEX
  8
0
  5
7C5
 10
39.9644
 20
71.6464
 30
0.000000
  70
    32
  0
VERTEX
  8
0
  5
7C6
 10
40.0210
 20
71.5931
 30
0.000000
  70
    32
  0
VERTEX
  8
0
  5
7C7
 10
40.0784
 20
71.5406
 30
0.000000
  70
    32
  0
VERTEX
  8
0
  5
7C8
 10
40.1366
 20
71.4890
 30
0.000000
  70
    32
  0
VERTEX
  8
0
  5
7C9
 10
40.1956
 20
71.4382
 30
0.000000
  70
    32
  0
VERTEX
  8
0
  5
7CA
 10
40.2554
 20
71.3883
 30
0.000000
  70
    32
  0
VERTEX
  8
0
  5
7CB
 10
40.3159
 20
71.3393
 30
0.000000
  70
    32
  0
VERTEX
  8
0
  5
7CC
 10
40.3771
 20
71.2912
 30
0.000000
  70
    32
  0
VERTEX
  8
0
  5
7CD
 10
40.4391
 20
71.2440
 30
0.000000
  70
    32
  0
VERTEX
  8
0
  5
7CE
 10
40.5018
 20
71.1977
 30
0.000000
  70
    32
  0
VERTEX
  8
0
  5
7CF
 10
40.5652
 20
71.1524
 30
0.000000
  70
    32
  0
VERTEX
  8
0
  5
7D0
 10
40.6294
 20
71.1079
 30
0.000000
  70
    32
  0
VERTEX
  8
0
  5
7D1
 10
40.6942
 20
71.0644
 30
0.000000
  70
    32
  0
VERTEX
  8
0
  5
7D2
 10
40.7597
 20
71.0219
 30
0.000000
  70
    32
  0
VERTEX
  8
0
  5
7D3
 10
40.8259
 20
70.9804
 30
0.000000
  70
    32
  0
VERTEX
  8
0
  5
7D4
 10
40.8928
 20
70.9398
 30
0.000000
  70
    32
  0
VERTEX
  8
0
  5
7D5
 10
40.9603
 20
70.9002
 30
0.000000
  70
    32
  0
VERTEX
  8
0
  5
7D6
 10
41.0284
 20
70.8616
 30
0.000000
  70
    32
  0
VERTEX
  8
0
  5
7D7
 10
41.0972
 20
70.8240
 30
0.000000
  70
    32
  0
VERTEX
  8
0
  5
7D8
 10
41.1667
 20
70.7874
 30
0.000000
  70
    32
  0
VERTEX
  8
0
  5
7D9
 10
41.2367
 20
70.7519
 30
0.000000
  70
    32
  0
VERTEX
  8
0
  5
7DA
 10
41.3074
 20
70.7173
 30
0.000000
  70
    32
  0
VERTEX
  8
0
  5
7DB
 10
41.3786
 20
70.6839
 30
0.000000
  70
    32
  0
VERTEX
  8
0
  5
7DC
 10
41.4504
 20
70.6515
 30
0.000000
  70
    32
  0
VERTEX
  8
0
  5
7DD
 10
41.5228
 20
70.6201
 30
0.000000
  70
    32
  0
VERTEX
  8
0
  5
7DE
 10
41.5958
 20
70.5898
 30
0.000000
  70
    32
  0
VERTEX
  8
0
  5
7DF
 10
41.6694
 20
70.5607
 30
0.000000
  70
    32
  0
VERTEX
  8
0
  5
7E0
 10
41.7434
 20
70.5326
 30
0.000000
  70
    32
  0
VERTEX
  8
0
  5
7E1
 10
41.8180
 20
70.5056
 30
0.000000
  70
    32
  0
VERTEX
  8
0
  5
7E2
 10
41.8932
 20
70.4797
 30
0.000000
  70
    32
  0
VERTEX
  8
0
  5
7E3
 10
41.9688
 20
70.4550
 30
0.000000
  70
    32
  0
VERTEX
  8
0
  5
7E4
 10
42.0450
 20
70.4314
 30
0.000000
  70
    32
  0
VERTEX
  8
0
  5
7E5
 10
42.1217
 20
70.4089
 30
0.000000
  70
    32
  0
VERTEX
  8
0
  5
7E6
 10
42.1988
 20
70.3876
 30
0.000000
  70
    32
  0
VERTEX
  8
0
  5
7E7
 10
42.2764
 20
70.3674
 30
0.000000
  70
    32
  0
VERTEX
  8
0
  5
7E8
 10
42.3545
 20
70.3485
 30
0.000000
  70
    32
  0
VERTEX
  8
0
  5
7E9
 10
42.4331
 20
70.3307
 30
0.000000
  70
    32
  0
VERTEX
  8
0
  5
7EA
 10
42.5121
 20
70.3141
 30
0.000000
  70
    32
  0
VERTEX
  8
0
  5
7EB
 10
42.5915
 20
70.2987
 30
0.000000
  70
    32
  0
VERTEX
  8
0
  5
7EC
 10
42.6714
 20
70.2846
 30
0.000000
  70
    32
  0
VERTEX
  8
0
  5
7ED
 10
42.7516
 20
70.2716
 30
0.000000
  70
    32
  0
VERTEX
  8
0
  5
7EE
 10
42.8323
 20
70.2599
 30
0.000000
  70
    32
  0
VERTEX
  8
0
  5
7EF
 10
42.9134
 20
70.2495
 30
0.000000
  70
    32
  0
VERTEX
  8
0
  5
7F0
 10
42.9948
 20
70.2403
 30
0.000000
  70
    32
  0
VERTEX
  8
0
  5
7F1
 10
43.0767
 20
70.2323
 30
0.000000
  70
    32
  0
VERTEX
  8
0
  5
7F2
 10
43.1589
 20
70.2257
 30
0.000000
  70
    32
  0
VERTEX
  8
0
  5
7F3
 10
43.2415
 20
70.2203
 30
0.000000
  70
    32
  0
VERTEX
  8
0
  5
7F4
 10
43.3244
 20
70.2162
 30
0.000000
  70
    32
  0
VERTEX
  8
0
  5
7F5
 10
43.4076
 20
70.2134
 30
0.000000
  70
    32
  0
VERTEX
  8
0
  5
7F6
 10
43.4912
 20
70.2120
 30
0.000000
  70
    32
  0
VERTEX
  8
0
  5
7F7
 10
43.5750
 20
70.2119
 30
0.000000
  70
    32
  0
VERTEX
  8
0
  5
7F8
 10
43.6587
 20
70.2130
 30
0.000000
  70
    32
  0
VERTEX
  8
0
  5
7F9
 10
43.7420
 20
70.2156
 30
0.000000
  70
    32
  0
VERTEX
  8
0
  5
7FA
 10
43.8250
 20
70.2194
 30
0.000000
  70
    32
  0
VERTEX
  8
0
  5
7FB
 10
43.9076
 20
70.2245
 30
0.000000
  70
    32
  0
VERTEX
  8
0
  5
7FC
 10
43.9899
 20
70.2309
 30
0.000000
  70
    32
  0
VERTEX
  8
0
  5
7FD
 10
44.0718
 20
70.2386
 30
0.000000
  70
    32
  0
VERTEX
  8
0
  5
7FE
 10
44.1534
 20
70.2475
 30
0.000000
  70
    32
  0
VERTEX
  8
0
  5
7FF
 10
44.2345
 20
70.2577
 30
0.000000
  70
    32
  0
VERTEX
  8
0
  5
800
 10
44.3153
 20
70.2692
 30
0.000000
  70
    32
  0
VERTEX
  8
0
  5
801
 10
44.3956
 20
70.2819
 30
0.000000
  70
    32
  0
VERTEX
  8
0
  5
802
 10
44.4756
 20
70.2958
 30
0.000000
  70
    32
  0
VERTEX
  8
0
  5
803
 10
44.5551
 20
70.3109
 30
0.000000
  70
    32
  0
VERTEX
  8
0
  5
804
 10
44.6342
 20
70.3273
 30
0.000000
  70
    32
  0
VERTEX
  8
0
  5
805
 10
44.7128
 20
70.3448
 30
0.000000
  70
    32
  0
VERTEX
  8
0
  5
806
 10
44.7910
 20
70.3636
 30
0.000000
  70
    32
  0
VERTEX
  8
0
  5
807
 10
44.8687
 20
70.3835
 30
0.000000
  70
    32
  0
VERTEX
  8
0
  5
808
 10
44.9460
 20
70.4045
 30
0.000000
  70
    32
  0
VERTEX
  8
0
  5
809
 10
45.0227
 20
70.4268
 30
0.000000
  70
    32
  0
VERTEX
  8
0
  5
80A
 10
45.0990
 20
70.4501
 30
0.000000
  70
    32
  0
VERTEX
  8
0
  5
80B
 10
45.1748
 20
70.4747
 30
0.000000
  70
    32
  0
VERTEX
  8
0
  5
80C
 10
45.2500
 20
70.5003
 30
0.000000
  70
    32
  0
VERTEX
  8
0
  5
80D
 10
45.3247
 20
70.5271
 30
0.000000
  70
    32
  0
VERTEX
  8
0
  5
80E
 10
45.3989
 20
70.5549
 30
0.000000
  70
    32
  0
VERTEX
  8
0
  5
80F
 10
45.4726
 20
70.5839
 30
0.000000
  70
    32
  0
VERTEX
  8
0
  5
810
 10
45.5457
 20
70.6140
 30
0.000000
  70
    32
  0
VERTEX
  8
0
  5
811
 10
45.6182
 20
70.6451
 30
0.000000
  70
    32
  0
VERTEX
  8
0
  5
812
 10
45.6901
 20
70.6773
 30
0.000000
  70
    32
  0
VERTEX
  8
0
  5
813
 10
45.7615
 20
70.7106
 30
0.000000
  70
    32
  0
VERTEX
  8
0
  5
814
 10
45.8323
 20
70.7449
 30
0.000000
  70
    32
  0
VERTEX
  8
0
  5
815
 10
45.9024
 20
70.7802
 30
0.000000
  70
    32
  0
VERTEX
  8
0
  5
816
 10
45.9720
 20
70.8166
 30
0.000000
  70
    32
  0
VERTEX
  8
0
  5
817
 10
46.0409
 20
70.8540
 30
0.000000
  70
    32
  0
VERTEX
  8
0
  5
818
 10
46.1092
 20
70.8924
 30
0.000000
  70
    32
  0
VERTEX
  8
0
  5
819
 10
46.1769
 20
70.9318
 30
0.000000
  70
    32
  0
VERTEX
  8
0
  5
81A
 10
46.2438
 20
70.9722
 30
0.000000
  70
    32
  0
VERTEX
  8
0
  5
81B
 10
46.3102
 20
71.0135
 30
0.000000
  70
    32
  0
VERTEX
  8
0
  5
81C
 10
46.3758
 20
71.0559
 30
0.000000
  70
    32
  0
VERTEX
  8
0
  5
81D
 10
46.4408
 20
71.0992
 30
0.000000
  70
    32
  0
VERTEX
  8
0
  5
81E
 10
46.5051
 20
71.1434
 30
0.000000
  70
    32
  0
VERTEX
  8
0
  5
81F
 10
46.5687
 20
71.1886
 30
0.000000
  70
    32
  0
VERTEX
  8
0
  5
820
 10
46.6315
 20
71.2347
 30
0.000000
  70
    32
  0
VERTEX
  8
0
  5
821
 10
46.6936
 20
71.2817
 30
0.000000
  70
    32
  0
VERTEX
  8
0
  5
822
 10
46.7550
 20
71.3296
 30
0.000000
  70
    32
  0
VERTEX
  8
0
  5
823
 10
46.8157
 20
71.3785
 30
0.000000
  70
    32
  0
VERTEX
  8
0
  5
824
 10
46.8756
 20
71.4282
 30
0.000000
  70
    32
  0
VERTEX
  8
0
  5
825
 10
46.9347
 20
71.4788
 30
0.000000
  70
    32
  0
VERTEX
  8
0
  5
826
 10
46.9931
 20
71.5302
 30
0.000000
  70
    32
  0
VERTEX
  8
0
  5
827
 10
47.0507
 20
71.5825
 30
0.000000
  70
    32
  0
VERTEX
  8
0
  5
828
 10
47.1075
 20
71.6357
 30
0.000000
  70
    32
  0
VERTEX
  8
0
  5
829
 10
47.1634
 20
71.6897
 30
0.000000
  70
    32
  0
VERTEX
  8
0
  5
82A
 10
47.2186
 20
71.7446
 30
0.000000
  70
    32
  0
VERTEX
  8
0
  5
82B
 10
47.2729
 20
71.8002
 30
0.000000
  70
    32
  0
VERTEX
  8
0
  5
82C
 10
47.3264
 20
71.8567
 30
0.000000
  70
    32
  0
VERTEX
  8
0
  5
82D
 10
47.3791
 20
71.9139
 30
0.000000
  70
    32
  0
VERTEX
  8
0
  5
82E
 10
47.4309
 20
71.9720
 30
0.000000
  70
    32
  0
VERTEX
  8
0
  5
82F
 10
47.4819
 20
72.0308
 30
0.000000
  70
    32
  0
VERTEX
  8
0
  5
830
 10
47.5319
 20
72.0904
 30
0.000000
  70
    32
  0
VERTEX
  8
0
  5
831
 10
47.5811
 20
72.1507
 30
0.000000
  70
    32
  0
VERTEX
  8
0
  5
832
 10
47.6294
 20
72.2118
 30
0.000000
  70
    32
  0
VERTEX
  8
0
  5
833
 10
47.6768
 20
72.2737
 30
0.000000
  70
    32
  0
VERTEX
  8
0
  5
834
 10
47.7233
 20
72.3362
 30
0.000000
  70
    32
  0
VERTEX
  8
0
  5
835
 10
47.7688
 20
72.3995
 30
0.000000
  70
    32
  0
VERTEX
  8
0
  5
836
 10
47.8134
 20
72.4635
 30
0.000000
  70
    32
  0
VERTEX
  8
0
  5
837
 10
47.8571
 20
72.5282
 30
0.000000
  70
    32
  0
VERTEX
  8
0
  5
838
 10
47.8998
 20
72.5936
 30
0.000000
  70
    32
  0
VERTEX
  8
0
  5
839
 10
47.9416
 20
72.6597
 30
0.000000
  70
    32
  0
VERTEX
  8
0
  5
83A
 10
47.9824
 20
72.7264
 30
0.000000
  70
    32
  0
VERTEX
  8
0
  5
83B
 10
48.0221
 20
72.7938
 30
0.000000
  70
    32
  0
VERTEX
  8
0
  5
83C
 10
48.0610
 20
72.8618
 30
0.000000
  70
    32
  0
VERTEX
  8
0
  5
83D
 10
48.0987
 20
72.9305
 30
0.000000
  70
    32
  0
VERTEX
  8
0
  5
83E
 10
48.1355
 20
72.9998
 30
0.000000
  70
    32
  0
VERTEX
  8
0
  5
83F
 10
48.1713
 20
73.0697
 30
0.000000
  70
    32
  0
VERTEX
  8
0
  5
840
 10
48.2060
 20
73.1402
 30
0.000000
  70
    32
  0
VERTEX
  8
0
  5
841
 10
48.2397
 20
73.2114
 30
0.000000
  70
    32
  0
VERTEX
  8
0
  5
842
 10
48.2723
 20
73.2831
 30
0.000000
  70
    32
  0
VERTEX
  8
0
  5
843
 10
48.3039
 20
73.3554
 30
0.000000
  70
    32
  0
VERTEX
  8
0
  5
844
 10
48.3344
 20
73.4282
 30
0.000000
  70
    32
  0
VERTEX
  8
0
  5
845
 10
48.3638
 20
73.5016
 30
0.000000
  70
    32
  0
VERTEX
  8
0
  5
846
 10
48.3921
 20
73.5756
 30
0.000000
  70
    32
  0
VERTEX
  8
0
  5
847
 10
48.4193
 20
73.6501
 30
0.000000
  70
    32
  0
VERTEX
  8
0
  5
848
 10
48.4454
 20
73.7252
 30
0.000000
  70
    32
  0
VERTEX
  8
0
  5
849
 10
48.4704
 20
73.8007
 30
0.000000
  70
    32
  0
VERTEX
  8
0
  5
84A
 10
48.4942
 20
73.8768
 30
0.000000
  70
    32
  0
VERTEX
  8
0
  5
84B
 10
48.5169
 20
73.9533
 30
0.000000
  70
    32
  0
VERTEX
  8
0
  5
84C
 10
48.5384
 20
74.0304
 30
0.000000
  70
    32
  0
VERTEX
  8
0
  5
84D
 10
48.5588
 20
74.1079
 30
0.000000
  70
    32
  0
VERTEX
  8
0
  5
84E
 10
48.5780
 20
74.1859
 30
0.000000
  70
    32
  0
VERTEX
  8
0
  5
84F
 10
48.5960
 20
74.2644
 30
0.000000
  70
    32
  0
VERTEX
  8
0
  5
850
 10
48.6129
 20
74.3433
 30
0.000000
  70
    32
  0
VERTEX
  8
0
  5
851
 10
48.6285
 20
74.4226
 30
0.000000
  70
    32
  0
VERTEX
  8
0
  5
852
 10
48.6429
 20
74.5024
 30
0.000000
  70
    32
  0
VERTEX
  8
0
  5
853
 10
48.6561
 20
74.5826
 30
0.000000
  70
    32
  0
VERTEX
  8
0
  5
854
 10
48.6680
 20
74.6632
 30
0.000000
  70
    32
  0
VERTEX
  8
0
  5
855
 10
48.6787
 20
74.7442
 30
0.000000
  70
    32
  0
VERTEX
  8
0
  5
856
 10
48.6882
 20
74.8256
 30
0.000000
  70
    32
  0
VERTEX
  8
0
  5
857
 10
48.6964
 20
74.9073
 30
0.000000
  70
    32
  0
VERTEX
  8
0
  5
858
 10
48.7033
 20
74.9895
 30
0.000000
  70
    32
  0
VERTEX
  8
0
  5
859
 10
48.7089
 20
75.0720
 30
0.000000
  70
    32
  0
VERTEX
  8
0
  5
85A
 10
48.7133
 20
75.1548
 30
0.000000
  70
    32
  0
VERTEX
  8
0
  5
85B
 10
48.7163
 20
75.2380
 30
0.000000
  70
    32
  0
VERTEX
  8
0
  5
85C
 10
48.7180
 20
75.3215
 30
0.000000
  70
    32
  0
VERTEX
  8
0
  5
85D
 10
48.7184
 20
75.3967
 30
0.000000
  70
    32
  0
VERTEX
  8
0
  5
85E
 10
48.7182
 20
75.4376
 30
0.000000
  70
    32
  0
VERTEX
  8
0
  5
85F
 10
48.7177
 20
75.4784
 30
0.000000
  70
    32
  0
VERTEX
  8
0
  5
860
 10
48.7168
 20
75.5191
 30
0.000000
  70
    32
  0
VERTEX
  8
0
  5
861
 10
48.7157
 20
75.5597
 30
0.000000
  70
    32
  0
VERTEX
  8
0
  5
862
 10
48.7142
 20
75.6003
 30
0.000000
  70
    32
  0
VERTEX
  8
0
  5
863
 10
48.7124
 20
75.6408
 30
0.000000
  70
    32
  0
VERTEX
  8
0
  5
864
 10
48.7103
 20
75.6812
 30
0.000000
  70
    32
  0
VERTEX
  8
0
  5
865
 10
48.7079
 20
75.7215
 30
0.000000
  70
    32
  0
VERTEX
  8
0
  5
866
 10
48.7052
 20
75.7617
 30
0.000000
  70
    32
  0
VERTEX
  8
0
  5
867
 10
48.7022
 20
75.8019
 30
0.000000
  70
    32
  0
VERTEX
  8
0
  5
868
 10
48.6989
 20
75.8419
 30
0.000000
  70
    32
  0
VERTEX
  8
0
  5
869
 10
48.6953
 20
75.8819
 30
0.000000
  70
    32
  0
VERTEX
  8
0
  5
86A
 10
48.6913
 20
75.9218
 30
0.000000
  70
    32
  0
VERTEX
  8
0
  5
86B
 10
48.6871
 20
75.9616
 30
0.000000
  70
    32
  0
VERTEX
  8
0
  5
86C
 10
48.6826
 20
76.0013
 30
0.000000
  70
    32
  0
VERTEX
  8
0
  5
86D
 10
48.6777
 20
76.0409
 30
0.000000
  70
    32
  0
VERTEX
  8
0
  5
86E
 10
48.6726
 20
76.0805
 30
0.000000
  70
    32
  0
VERTEX
  8
0
  5
86F
 10
48.6672
 20
76.1199
 30
0.000000
  70
    32
  0
VERTEX
  8
0
  5
870
 10
48.6615
 20
76.1592
 30
0.000000
  70
    32
  0
VERTEX
  8
0
  5
871
 10
48.6555
 20
76.1985
 30
0.000000
  70
    32
  0
VERTEX
  8
0
  5
872
 10
48.6492
 20
76.2376
 30
0.000000
  70
    32
  0
VERTEX
  8
0
  5
873
 10
48.6426
 20
76.2766
 30
0.000000
  70
    32
  0
VERTEX
  8
0
  5
874
 10
48.6357
 20
76.3156
 30
0.000000
  70
    32
  0
VERTEX
  8
0
  5
875
 10
48.6285
 20
76.3544
 30
0.000000
  70
    32
  0
VERTEX
  8
0
  5
876
 10
48.6210
 20
76.3932
 30
0.000000
  70
    32
  0
VERTEX
  8
0
  5
877
 10
48.6133
 20
76.4318
 30
0.000000
  70
    32
  0
VERTEX
  8
0
  5
878
 10
48.6053
 20
76.4703
 30
0.000000
  70
    32
  0
VERTEX
  8
0
  5
879
 10
48.5969
 20
76.5088
 30
0.000000
  70
    32
  0
VERTEX
  8
0
  5
87A
 10
48.5883
 20
76.5471
 30
0.000000
  70
    32
  0
VERTEX
  8
0
  5
87B
 10
48.5794
 20
76.5853
 30
0.000000
  70
    32
  0
VERTEX
  8
0
  5
87C
 10
48.5703
 20
76.6234
 30
0.000000
  70
    32
  0
VERTEX
  8
0
  5
87D
 10
48.5608
 20
76.6614
 30
0.000000
  70
    32
  0
VERTEX
  8
0
  5
87E
 10
48.5511
 20
76.6993
 30
0.000000
  70
    32
  0
VERTEX
  8
0
  5
87F
 10
48.5411
 20
76.7371
 30
0.000000
  70
    32
  0
VERTEX
  8
0
  5
880
 10
48.5308
 20
76.7747
 30
0.000000
  70
    32
  0
VERTEX
  8
0
  5
881
 10
48.5202
 20
76.8123
 30
0.000000
  70
    32
  0
VERTEX
  8
0
  5
882
 10
48.5094
 20
76.8497
 30
0.000000
  70
    32
  0
VERTEX
  8
0
  5
883
 10
48.4983
 20
76.8870
 30
0.000000
  70
    32
  0
VERTEX
  8
0
  5
884
 10
48.4869
 20
76.9242
 30
0.000000
  70
    32
  0
VERTEX
  8
0
  5
885
 10
48.4752
 20
76.9613
 30
0.000000
  70
    32
  0
VERTEX
  8
0
  5
886
 10
48.4633
 20
76.9982
 30
0.000000
  70
    32
  0
VERTEX
  8
0
  5
887
 10
48.4511
 20
77.0350
 30
0.000000
  70
    32
  0
VERTEX
  8
0
  5
888
 10
48.4387
 20
77.0718
 30
0.000000
  70
    32
  0
VERTEX
  8
0
  5
889
 10
48.4259
 20
77.1083
 30
0.000000
  70
    32
  0
VERTEX
  8
0
  5
88A
 10
48.4129
 20
77.1448
 30
0.000000
  70
    32
  0
VERTEX
  8
0
  5
88B
 10
48.3997
 20
77.1811
 30
0.000000
  70
    32
  0
VERTEX
  8
0
  5
88C
 10
48.3862
 20
77.2173
 30
0.000000
  70
    32
  0
VERTEX
  8
0
  5
88D
 10
48.3724
 20
77.2534
 30
0.000000
  70
    32
  0
VERTEX
  8
0
  5
88E
 10
48.3583
 20
77.2894
 30
0.000000
  70
    32
  0
VERTEX
  8
0
  5
88F
 10
48.3440
 20
77.3252
 30
0.000000
  70
    32
  0
VERTEX
  8
0
  5
890
 10
48.3295
 20
77.3609
 30
0.000000
  70
    32
  0
VERTEX
  8
0
  5
891
 10
48.3147
 20
77.3964
 30
0.000000
  70
    32
  0
VERTEX
  8
0
  5
892
 10
48.2996
 20
77.4318
 30
0.000000
  70
    32
  0
VERTEX
  8
0
  5
893
 10
48.2843
 20
77.4671
 30
0.000000
  70
    32
  0
VERTEX
  8
0
  5
894
 10
48.2687
 20
77.5023
 30
0.000000
  70
    32
  0
VERTEX
  8
0
  5
895
 10
48.2528
 20
77.5373
 30
0.000000
  70
    32
  0
VERTEX
  8
0
  5
896
 10
48.2368
 20
77.5721
 30
0.000000
  70
    32
  0
VERTEX
  8
0
  5
897
 10
48.2204
 20
77.6069
 30
0.000000
  70
    32
  0
VERTEX
  8
0
  5
898
 10
48.2038
 20
77.6414
 30
0.000000
  70
    32
  0
VERTEX
  8
0
  5
899
 10
48.1870
 20
77.6759
 30
0.000000
  70
    32
  0
VERTEX
  8
0
  5
89A
 10
48.1699
 20
77.7102
 30
0.000000
  70
    32
  0
VERTEX
  8
0
  5
89B
 10
48.1526
 20
77.7443
 30
0.000000
  70
    32
  0
VERTEX
  8
0
  5
89C
 10
48.1350
 20
77.7783
 30
0.000000
  70
    32
  0
VERTEX
  8
0
  5
89D
 10
48.1172
 20
77.8122
 30
0.000000
  70
    32
  0
VERTEX
  8
0
  5
89E
 10
48.0992
 20
77.8459
 30
0.000000
  70
    32
  0
VERTEX
  8
0
  5
89F
 10
48.0809
 20
77.8795
 30
0.000000
  70
    32
  0
VERTEX
  8
0
  5
8A0
 10
48.0623
 20
77.9129
 30
0.000000
  70
    32
  0
VERTEX
  8
0
  5
8A1
 10
48.0435
 20
77.9462
 30
0.000000
  70
    32
  0
VERTEX
  8
0
  5
8A2
 10
48.0245
 20
77.9793
 30
0.000000
  70
    32
  0
VERTEX
  8
0
  5
8A3
 10
48.0053
 20
78.0122
 30
0.000000
  70
    32
  0
VERTEX
  8
0
  5
8A4
 10
47.9858
 20
78.0450
 30
0.000000
  70
    32
  0
VERTEX
  8
0
  5
8A5
 10
47.9661
 20
78.0777
 30
0.000000
  70
    32
  0
VERTEX
  8
0
  5
8A6
 10
47.9461
 20
78.1102
 30
0.000000
  70
    32
  0
VERTEX
  8
0
  5
8A7
 10
47.9259
 20
78.1425
 30
0.000000
  70
    32
  0
VERTEX
  8
0
  5
8A8
 10
47.9055
 20
78.1746
 30
0.000000
  70
    32
  0
VERTEX
  8
0
  5
8A9
 10
47.8849
 20
78.2067
 30
0.000000
  70
    32
  0
VERTEX
  8
0
  5
8AA
 10
47.8640
 20
78.2385
 30
0.000000
  70
    32
  0
VERTEX
  8
0
  5
8AB
 10
47.8429
 20
78.2702
 30
0.000000
  70
    32
  0
VERTEX
  8
0
  5
8AC
 10
47.8216
 20
78.3017
 30
0.000000
  70
    32
  0
VERTEX
  8
0
  5
8AD
 10
47.8000
 20
78.3330
 30
0.000000
  70
    32
  0
VERTEX
  8
0
  5
8AE
 10
47.7783
 20
78.3642
 30
0.000000
  70
    32
  0
VERTEX
  8
0
  5
8AF
 10
47.7563
 20
78.3952
 30
0.000000
  70
    32
  0
VERTEX
  8
0
  5
8B0
 10
47.7340
 20
78.4261
 30
0.000000
  70
    32
  0
VERTEX
  8
0
  5
8B1
 10
47.7116
 20
78.4568
 30
0.000000
  70
    32
  0
VERTEX
  8
0
  5
8B2
 10
47.6889
 20
78.4873
 30
0.000000
  70
    32
  0
VERTEX
  8
0
  5
8B3
 10
47.6661
 20
78.5176
 30
0.000000
  70
    32
  0
VERTEX
  8
0
  5
8B4
 10
47.6430
 20
78.5478
 30
0.000000
  70
    32
  0
VERTEX
  8
0
  5
8B5
 10
47.6197
 20
78.5778
 30
0.000000
  70
    32
  0
VERTEX
  8
0
  5
8B6
 10
47.5961
 20
78.6076
 30
0.000000
  70
    32
  0
VERTEX
  8
0
  5
8B7
 10
47.5724
 20
78.6372
 30
0.000000
  70
    32
  0
VERTEX
  8
0
  5
8B8
 10
47.5485
 20
78.6667
 30
0.000000
  70
    32
  0
VERTEX
  8
0
  5
8B9
 10
47.5243
 20
78.6959
 30
0.000000
  70
    32
  0
VERTEX
  8
0
  5
8BA
 10
47.4999
 20
78.7250
 30
0.000000
  70
    32
  0
VERTEX
  8
0
  5
8BB
 10
47.4753
 20
78.7539
 30
0.000000
  70
    32
  0
VERTEX
  8
0
  5
8BC
 10
47.4506
 20
78.7827
 30
0.000000
  70
    32
  0
VERTEX
  8
0
  5
8BD
 10
47.4256
 20
78.8112
 30
0.000000
  70
    32
  0
VERTEX
  8
0
  5
8BE
 10
47.4004
 20
78.8396
 30
0.000000
  70
    32
  0
VERTEX
  8
0
  5
8BF
 10
47.3750
 20
78.8677
 30
0.000000
  70
    32
  0
VERTEX
  8
0
  5
8C0
 10
47.3494
 20
78.8957
 30
0.000000
  70
    32
  0
VERTEX
  8
0
  5
8C1
 10
47.3236
 20
78.9235
 30
0.000000
  70
    32
  0
VERTEX
  8
0
  5
8C2
 10
47.2976
 20
78.9511
 30
0.000000
  70
    32
  0
VERTEX
  8
0
  5
8C3
 10
47.2713
 20
78.9785
 30
0.000000
  70
    32
  0
SEQEND
  8
0
  5
8C4
  0
POLYLINE
  8
0
  5
8C5
  66
     1
 10
0.000000
 20
0.000000
 30
0.000000
  70
     8
  0
VERTEX
  8
0
  5
8C6
 10
35.3599
 20
54.2351
 30
0.000000
  70
    32
  0
VERTEX
  8
0
  5
8C7
 10
35.3631
 20
54.2351
 30
0.000000
  70
    32
  0
VERTEX
  8
0
  5
8C8
 10
35.3728
 20
54.2351
 30
0.000000
  70
    32
  0
VERTEX
  8
0
  5
8C9
 10
35.3888
 20
54.2351
 30
0.000000
  70
    32
  0
VERTEX
  8
0
  5
8CA
 10
35.4111
 20
54.2351
 30
0.000000
  70
    32
  0
VERTEX
  8
0
  5
8CB
 10
35.4394
 20
54.2351
 30
0.000000
  70
    32
  0
VERTEX
  8
0
  5
8CC
 10
35.4738
 20
54.2351
 30
0.000000
  70
    32
  0
VERTEX
  8
0
  5
8CD
 10
35.5140
 20
54.2351
 30
0.000000
  70
    32
  0
VERTEX
  8
0
  5
8CE
 10
35.5601
 20
54.2351
 30
0.000000
  70
    32
  0
VERTEX
  8
0
  5
8CF
 10
35.6119
 20
54.2351
 30
0.000000
  70
    32
  0
VERTEX
  8
0
  5
8D0
 10
35.6693
 20
54.2351
 30
0.000000
  70
    32
  0
VERTEX
  8
0
  5
8D1
 10
35.7322
 20
54.2351
 30
0.000000
  70
    32
  0
VERTEX
  8
0
  5
8D2
 10
35.8006
 20
54.2351
 30
0.000000
  70
    32
  0
VERTEX
  8
0
  5
8D3
 10
35.8742
 20
54.2351
 30
0.000000
  70
    32
  0
VERTEX
  8
0
  5
8D4
 10
35.9530
 20
54.2351
 30
0.000000
  70
    32
  0
VERTEX
  8
0
  5
8D5
 10
36.0369
 20
54.2351
 30
0.000000
  70
    32
  0
VERTEX
  8
0
  5
8D6
 10
36.1257
 20
54.2351
 30
0.000000
  70
    32
  0
VERTEX
  8
0
  5
8D7
 10
36.2195
 20
54.2351
 30
0.000000
  70
    32
  0
VERTEX
  8
0
  5
8D8
 10
36.3181
 20
54.2351
 30
0.000000
  70
    32
  0
VERTEX
  8
0
  5
8D9
 10
36.4213
 20
54.2351
 30
0.000000
  70
    32
  0
VERTEX
  8
0
  5
8DA
 10
36.5291
 20
54.2351
 30
0.000000
  70
    32
  0
VERTEX
  8
0
  5
8DB
 10
36.6414
 20
54.2351
 30
0.000000
  70
    32
  0
VERTEX
  8
0
  5
8DC
 10
36.7580
 20
54.2351
 30
0.000000
  70
    32
  0
VERTEX
  8
0
  5
8DD
 10
36.8789
 20
54.2351
 30
0.000000
  70
    32
  0
VERTEX
  8
0
  5
8DE
 10
37.0040
 20
54.2351
 30
0.000000
  70
    32
  0
VERTEX
  8
0
  5
8DF
 10
37.1332
 20
54.2351
 30
0.000000
  70
    32
  0
VERTEX
  8
0
  5
8E0
 10
37.2663
 20
54.2351
 30
0.000000
  70
    32
  0
VERTEX
  8
0
  5
8E1
 10
37.4033
 20
54.2351
 30
0.000000
  70
    32
  0
VERTEX
  8
0
  5
8E2
 10
37.5440
 20
54.2351
 30
0.000000
  70
    32
  0
VERTEX
  8
0
  5
8E3
 10
37.6884
 20
54.2351
 30
0.000000
  70
    32
  0
VERTEX
  8
0
  5
8E4
 10
37.8363
 20
54.2351
 30
0.000000
  70
    32
  0
VERTEX
  8
0
  5
8E5
 10
37.9877
 20
54.2351
 30
0.000000
  70
    32
  0
VERTEX
  8
0
  5
8E6
 10
38.1424
 20
54.2351
 30
0.000000
  70
    32
  0
VERTEX
  8
0
  5
8E7
 10
38.3003
 20
54.2351
 30
0.000000
  70
    32
  0
VERTEX
  8
0
  5
8E8
 10
38.4614
 20
54.2351
 30
0.000000
  70
    32
  0
VERTEX
  8
0
  5
8E9
 10
38.6255
 20
54.2351
 30
0.000000
  70
    32
  0
VERTEX
  8
0
  5
8EA
 10
38.7926
 20
54.2351
 30
0.000000
  70
    32
  0
VERTEX
  8
0
  5
8EB
 10
38.9625
 20
54.2351
 30
0.000000
  70
    32
  0
VERTEX
  8
0
  5
8EC
 10
39.1351
 20
54.2351
 30
0.000000
  70
    32
  0
VERTEX
  8
0
  5
8ED
 10
39.3103
 20
54.2351
 30
0.000000
  70
    32
  0
VERTEX
  8
0
  5
8EE
 10
39.4881
 20
54.2351
 30
0.000000
  70
    32
  0
VERTEX
  8
0
  5
8EF
 10
39.6682
 20
54.2351
 30
0.000000
  70
    32
  0
VERTEX
  8
0
  5
8F0
 10
39.8507
 20
54.2351
 30
0.000000
  70
    32
  0
VERTEX
  8
0
  5
8F1
 10
40.0354
 20
54.2351
 30
0.000000
  70
    32
  0
VERTEX
  8
0
  5
8F2
 10
40.2222
 20
54.2351
 30
0.000000
  70
    32
  0
VERTEX
  8
0
  5
8F3
 10
40.4110
 20
54.2351
 30
0.000000
  70
    32
  0
VERTEX
  8
0
  5
8F4
 10
40.6017
 20
54.2351
 30
0.000000
  70
    32
  0
VERTEX
  8
0
  5
8F5
 10
40.7943
 20
54.2351
 30
0.000000
  70
    32
  0
VERTEX
  8
0
  5
8F6
 10
40.9885
 20
54.2351
 30
0.000000
  70
    32
  0
VERTEX
  8
0
  5
8F7
 10
41.1843
 20
54.2351
 30
0.000000
  70
    32
  0
VERTEX
  8
0
  5
8F8
 10
41.3816
 20
54.2351
 30
0.000000
  70
    32
  0
VERTEX
  8
0
  5
8F9
 10
41.5803
 20
54.2351
 30
0.000000
  70
    32
  0
VERTEX
  8
0
  5
8FA
 10
41.7802
 20
54.2351
 30
0.000000
  70
    32
  0
VERTEX
  8
0
  5
8FB
 10
41.9814
 20
54.2351
 30
0.000000
  70
    32
  0
VERTEX
  8
0
  5
8FC
 10
42.1836
 20
54.2351
 30
0.000000
  70
    32
  0
VERTEX
  8
0
  5
8FD
 10
42.3868
 20
54.2351
 30
0.000000
  70
    32
  0
VERTEX
  8
0
  5
8FE
 10
42.5909
 20
54.2351
 30
0.000000
  70
    32
  0
VERTEX
  8
0
  5
8FF
 10
42.7958
 20
54.2351
 30
0.000000
  70
    32
  0
VERTEX
  8
0
  5
900
 10
43.0013
 20
54.2351
 30
0.000000
  70
    32
  0
VERTEX
  8
0
  5
901
 10
43.2074
 20
54.2351
 30
0.000000
  70
    32
  0
VERTEX
  8
0
  5
902
 10
43.4139
 20
54.2351
 30
0.000000
  70
    32
  0
VERTEX
  8
0
  5
903
 10
43.6209
 20
54.2351
 30
0.000000
  70
    32
  0
VERTEX
  8
0
  5
904
 10
43.8280
 20
54.2351
 30
0.000000
  70
    32
  0
VERTEX
  8
0
  5
905
 10
44.0354
 20
54.2351
 30
0.000000
  70
    32
  0
VERTEX
  8
0
  5
906
 10
44.2427
 20
54.2351
 30
0.000000
  70
    32
  0
VERTEX
  8
0
  5
907
 10
44.4501
 20
54.2351
 30
0.000000
  70
    32
  0
VERTEX
  8
0
  5
908
 10
44.6572
 20
54.2351
 30
0.000000
  70
    32
  0
VERTEX
  8
0
  5
909
 10
44.8641
 20
54.2351
 30
0.000000
  70
    32
  0
VERTEX
  8
0
  5
90A
 10
45.0707
 20
54.2351
 30
0.000000
  70
    32
  0
VERTEX
  8
0
  5
90B
 10
45.2768
 20
54.2351
 30
0.000000
  70
    32
  0
VERTEX
  8
0
  5
90C
 10
45.4823
 20
54.2351
 30
0.000000
  70
    32
  0
VERTEX
  8
0
  5
90D
 10
45.6872
 20
54.2351
 30
0.000000
  70
    32
  0
VERTEX
  8
0
  5
90E
 10
45.8913
 20
54.2351
 30
0.000000
  70
    32
  0
VERTEX
  8
0
  5
90F
 10
46.0945
 20
54.2351
 30
0.000000
  70
    32
  0
VERTEX
  8
0
  5
910
 10
46.2967
 20
54.2351
 30
0.000000
  70
    32
  0
VERTEX
  8
0
  5
911
 10
46.4979
 20
54.2351
 30
0.000000
  70
    32
  0
VERTEX
  8
0
  5
912
 10
46.6978
 20
54.2351
 30
0.000000
  70
    32
  0
VERTEX
  8
0
  5
913
 10
46.8965
 20
54.2351
 30
0.000000
  70
    32
  0
VERTEX
  8
0
  5
914
 10
47.0938
 20
54.2351
 30
0.000000
  70
    32
  0
VERTEX
  8
0
  5
915
 10
47.2896
 20
54.2351
 30
0.000000
  70
    32
  0
VERTEX
  8
0
  5
916
 10
47.4838
 20
54.2351
 30
0.000000
  70
    32
  0
VERTEX
  8
0
  5
917
 10
47.6763
 20
54.2351
 30
0.000000
  70
    32
  0
VERTEX
  8
0
  5
918
 10
47.8670
 20
54.2351
 30
0.000000
  70
    32
  0
VERTEX
  8
0
  5
919
 10
48.0559
 20
54.2351
 30
0.000000
  70
    32
  0
VERTEX
  8
0
  5
91A
 10
48.2427
 20
54.2351
 30
0.000000
  70
    32
  0
VERTEX
  8
0
  5
91B
 10
48.4274
 20
54.2351
 30
0.000000
  70
    32
  0
VERTEX
  8
0
  5
91C
 10
48.6098
 20
54.2351
 30
0.000000
  70
    32
  0
VERTEX
  8
0
  5
91D
 10
48.7900
 20
54.2351
 30
0.000000
  70
    32
  0
VERTEX
  8
0
  5
91E
 10
48.9678
 20
54.2351
 30
0.000000
  70
    32
  0
VERTEX
  8
0
  5
91F
 10
49.1430
 20
54.2351
 30
0.000000
  70
    32
  0
VERTEX
  8
0
  5
920
 10
49.3156
 20
54.2351
 30
0.000000
  70
    32
  0
VERTEX
  8
0
  5
921
 10
49.4855
 20
54.2351
 30
0.000000
  70
    32
  0
VERTEX
  8
0
  5
922
 10
49.6526
 20
54.2351
 30
0.000000
  70
    32
  0
VERTEX
  8
0
  5
923
 10
49.8167
 20
54.2351
 30
0.000000
  70
    32
  0
VERTEX
  8
0
  5
924
 10
49.9778
 20
54.2351
 30
0.000000
  70
    32
  0
VERTEX
  8
0
  5
925
 10
50.1357
 20
54.2351
 30
0.000000
  70
    32
  0
VERTEX
  8
0
  5
926
 10
50.2904
 20
54.2351
 30
0.000000
  70
    32
  0
VERTEX
  8
0
  5
927
 10
50.4418
 20
54.2351
 30
0.000000
  70
    32
  0
VERTEX
  8
0
  5
928
 10
50.5897
 20
54.2351
 30
0.000000
  70
    32
  0
VERTEX
  8
0
  5
929
 10
50.7341
 20
54.2351
 30
0.000000
  70
    32
  0
VERTEX
  8
0
  5
92A
 10
50.8748
 20
54.2351
 30
0.000000
  70
    32
  0
VERTEX
  8
0
  5
92B
 10
51.0118
 20
54.2351
 30
0.000000
  70
    32
  0
VERTEX
  8
0
  5
92C
 10
51.1449
 20
54.2351
 30
0.000000
  70
    32
  0
VERTEX
  8
0
  5
92D
 10
51.2740
 20
54.2351
 30
0.000000
  70
    32
  0
VERTEX
  8
0
  5
92E
 10
51.3991
 20
54.2351
 30
0.000000
  70
    32
  0
VERTEX
  8
0
  5
92F
 10
51.5201
 20
54.2351
 30
0.000000
  70
    32
  0
VERTEX
  8
0
  5
930
 10
51.6367
 20
54.2351
 30
0.000000
  70
    32
  0
VERTEX
  8
0
  5
931
 10
51.7490
 20
54.2351
 30
0.000000
  70
    32
  0
VERTEX
  8
0
  5
932
 10
51.8568
 20
54.2351
 30
0.000000
  70
    32
  0
VERTEX
  8
0
  5
933
 10
51.9600
 20
54.2351
 30
0.000000
  70
    32
  0
VERTEX
  8
0
  5
934
 10
52.0586
 20
54.2351
 30
0.000000
  70
    32
  0
VERTEX
  8
0
  5
935
 10
52.1523
 20
54.2351
 30
0.000000
  70
    32
  0
VERTEX
  8
0
  5
936
 10
52.2412
 20
54.2351
 30
0.000000
  70
    32
  0
VERTEX
  8
0
  5
937
 10
52.3251
 20
54.2351
 30
0.000000
  70
    32
  0
VERTEX
  8
0
  5
938
 10
52.4039
 20
54.2351
 30
0.000000
  70
    32
  0
VERTEX
  8
0
  5
939
 10
52.4775
 20
54.2351
 30
0.000000
  70
    32
  0
VERTEX
  8
0
  5
93A
 10
52.5458
 20
54.2351
 30
0.000000
  70
    32
  0
VERTEX
  8
0
  5
93B
 10
52.6087
 20
54.2351
 30
0.000000
  70
    32
  0
VERTEX
  8
0
  5
93C
 10
52.6661
 20
54.2351
 30
0.000000
  70
    32
  0
VERTEX
  8
0
  5
93D
 10
52.7179
 20
54.2351
 30
0.000000
  70
    32
  0
VERTEX
  8
0
  5
93E
 10
52.7640
 20
54.2351
 30
0.000000
  70
    32
  0
VERTEX
  8
0
  5
93F
 10
52.8043
 20
54.2351
 30
0.000000
  70
    32
  0
VERTEX
  8
0
  5
940
 10
52.8387
 20
54.2351
 30
0.000000
  70
    32
  0
VERTEX
  8
0
  5
941
 10
52.8670
 20
54.2351
 30
0.000000
  70
    32
  0
VERTEX
  8
0
  5
942
 10
52.8893
 20
54.2351
 30
0.000000
  70
    32
  0
VERTEX
  8
0
  5
943
 10
52.9053
 20
54.2351
 30
0.000000
  70
    32
  0
VERTEX
  8
0
  5
944
 10
52.9149
 20
54.2351
 30
0.000000
  70
    32
  0
VERTEX
  8
0
  5
945
 10
52.9182
 20
54.2351
 30
0.000000
  70
    32
  0
SEQEND
  8
0
  5
946
  0
POLYLINE
  8
0
  5
947
  66
     1
 10
0.000000
 20
0.000000
 30
0.000000
  70
     8
  0
VERTEX
  8
0
  5
948
 10
35.3599
 20
54.5453
 30
0.000000
  70
    32
  0
VERTEX
  8
0
  5
949
 10
35.3599
 20
54.5453
 30
0.000000
  70
    32
  0
VERTEX
  8
0
  5
94A
 10
35.3599
 20
54.5451
 30
0.000000
  70
    32
  0
VERTEX
  8
0
  5
94B
 10
35.3599
 20
54.5448
 30
0.000000
  70
    32
  0
VERTEX
  8
0
  5
94C
 10
35.3599
 20
54.5444
 30
0.000000
  70
    32
  0
VERTEX
  8
0
  5
94D
 10
35.3599
 20
54.5439
 30
0.000000
  70
    32
  0
VERTEX
  8
0
  5
94E
 10
35.3599
 20
54.5433
 30
0.000000
  70
    32
  0
VERTEX
  8
0
  5
94F
 10
35.3599
 20
54.5426
 30
0.000000
  70
    32
  0
VERTEX
  8
0
  5
950
 10
35.3599
 20
54.5418
 30
0.000000
  70
    32
  0
VERTEX
  8
0
  5
951
 10
35.3599
 20
54.5409
 30
0.000000
  70
    32
  0
VERTEX
  8
0
  5
952
 10
35.3599
 20
54.5399
 30
0.000000
  70
    32
  0
VERTEX
  8
0
  5
953
 10
35.3599
 20
54.5388
 30
0.000000
  70
    32
  0
VERTEX
  8
0
  5
954
 10
35.3599
 20
54.5376
 30
0.000000
  70
    32
  0
VERTEX
  8
0
  5
955
 10
35.3599
 20
54.5363
 30
0.000000
  70
    32
  0
VERTEX
  8
0
  5
956
 10
35.3599
 20
54.5349
 30
0.000000
  70
    32
  0
VERTEX
  8
0
  5
957
 10
35.3599
 20
54.5334
 30
0.000000
  70
    32
  0
VERTEX
  8
0
  5
958
 10
35.3599
 20
54.5318
 30
0.000000
  70
    32
  0
VERTEX
  8
0
  5
959
 10
35.3599
 20
54.5301
 30
0.000000
  70
    32
  0
VERTEX
  8
0
  5
95A
 10
35.3599
 20
54.5284
 30
0.000000
  70
    32
  0
VERTEX
  8
0
  5
95B
 10
35.3599
 20
54.5266
 30
0.000000
  70
    32
  0
VERTEX
  8
0
  5
95C
 10
35.3599
 20
54.5247
 30
0.000000
  70
    32
  0
VERTEX
  8
0
  5
95D
 10
35.3599
 20
54.5227
 30
0.000000
  70
    32
  0
VERTEX
  8
0
  5
95E
 10
35.3599
 20
54.5206
 30
0.000000
  70
    32
  0
VERTEX
  8
0
  5
95F
 10
35.3599
 20
54.5185
 30
0.000000
  70
    32
  0
VERTEX
  8
0
  5
960
 10
35.3599
 20
54.5163
 30
0.000000
  70
    32
  0
VERTEX
  8
0
  5
961
 10
35.3599
 20
54.5140
 30
0.000000
  70
    32
  0
VERTEX
  8
0
  5
962
 10
35.3599
 20
54.5117
 30
0.000000
  70
    32
  0
VERTEX
  8
0
  5
963
 10
35.3599
 20
54.5092
 30
0.000000
  70
    32
  0
VERTEX
  8
0
  5
964
 10
35.3599
 20
54.5067
 30
0.000000
  70
    32
  0
VERTEX
  8
0
  5
965
 10
35.3599
 20
54.5042
 30
0.000000
  70
    32
  0
VERTEX
  8
0
  5
966
 10
35.3599
 20
54.5016
 30
0.000000
  70
    32
  0
VERTEX
  8
0
  5
967
 10
35.3599
 20
54.4989
 30
0.000000
  70
    32
  0
VERTEX
  8
0
  5
968
 10
35.3599
 20
54.4962
 30
0.000000
  70
    32
  0
VERTEX
  8
0
  5
969
 10
35.3599
 20
54.4934
 30
0.000000
  70
    32
  0
VERTEX
  8
0
  5
96A
 10
35.3599
 20
54.4905
 30
0.000000
  70
    32
  0
VERTEX
  8
0
  5
96B
 10
35.3599
 20
54.4876
 30
0.000000
  70
    32
  0
VERTEX
  8
0
  5
96C
 10
35.3599
 20
54.4847
 30
0.000000
  70
    32
  0
VERTEX
  8
0
  5
96D
 10
35.3599
 20
54.4817
 30
0.000000
  70
    32
  0
VERTEX
  8
0
  5
96E
 10
35.3599
 20
54.4786
 30
0.000000
  70
    32
  0
VERTEX
  8
0
  5
96F
 10
35.3599
 20
54.4755
 30
0.000000
  70
    32
  0
VERTEX
  8
0
  5
970
 10
35.3599
 20
54.4724
 30
0.000000
  70
    32
  0
VERTEX
  8
0
  5
971
 10
35.3599
 20
54.4692
 30
0.000000
  70
    32
  0
VERTEX
  8
0
  5
972
 10
35.3599
 20
54.4660
 30
0.000000
  70
    32
  0
VERTEX
  8
0
  5
973
 10
35.3599
 20
54.4627
 30
0.000000
  70
    32
  0
VERTEX
  8
0
  5
974
 10
35.3599
 20
54.4594
 30
0.000000
  70
    32
  0
VERTEX
  8
0
  5
975
 10
35.3599
 20
54.4561
 30
0.000000
  70
    32
  0
VERTEX
  8
0
  5
976
 10
35.3599
 20
54.4527
 30
0.000000
  70
    32
  0
VERTEX
  8
0
  5
977
 10
35.3599
 20
54.4493
 30
0.000000
  70
    32
  0
VERTEX
  8
0
  5
978
 10
35.3599
 20
54.4459
 30
0.000000
  70
    32
  0
VERTEX
  8
0
  5
979
 10
35.3599
 20
54.4424
 30
0.000000
  70
    32
  0
VERTEX
  8
0
  5
97A
 10
35.3599
 20
54.4389
 30
0.000000
  70
    32
  0
VERTEX
  8
0
  5
97B
 10
35.3599
 20
54.4354
 30
0.000000
  70
    32
  0
VERTEX
  8
0
  5
97C
 10
35.3599
 20
54.4319
 30
0.000000
  70
    32
  0
VERTEX
  8
0
  5
97D
 10
35.3599
 20
54.4283
 30
0.000000
  70
    32
  0
VERTEX
  8
0
  5
97E
 10
35.3599
 20
54.4248
 30
0.000000
  70
    32
  0
VERTEX
  8
0
  5
97F
 10
35.3599
 20
54.4212
 30
0.000000
  70
    32
  0
VERTEX
  8
0
  5
980
 10
35.3599
 20
54.4176
 30
0.000000
  70
    32
  0
VERTEX
  8
0
  5
981
 10
35.3599
 20
54.4139
 30
0.000000
  70
    32
  0
VERTEX
  8
0
  5
982
 10
35.3599
 20
54.4103
 30
0.000000
  70
    32
  0
VERTEX
  8
0
  5
983
 10
35.3599
 20
54.4067
 30
0.000000
  70
    32
  0
VERTEX
  8
0
  5
984
 10
35.3599
 20
54.4030
 30
0.000000
  70
    32
  0
VERTEX
  8
0
  5
985
 10
35.3599
 20
54.3994
 30
0.000000
  70
    32
  0
VERTEX
  8
0
  5
986
 10
35.3599
 20
54.3957
 30
0.000000
  70
    32
  0
VERTEX
  8
0
  5
987
 10
35.3599
 20
54.3920
 30
0.000000
  70
    32
  0
VERTEX
  8
0
  5
988
 10
35.3599
 20
54.3884
 30
0.000000
  70
    32
  0
VERTEX
  8
0
  5
989
 10
35.3599
 20
54.3847
 30
0.000000
  70
    32
  0
VERTEX
  8
0
  5
98A
 10
35.3599
 20
54.3810
 30
0.000000
  70
    32
  0
VERTEX
  8
0
  5
98B
 10
35.3599
 20
54.3774
 30
0.000000
  70
    32
  0
VERTEX
  8
0
  5
98C
 10
35.3599
 20
54.3737
 30
0.000000
  70
    32
  0
VERTEX
  8
0
  5
98D
 10
35.3599
 20
54.3701
 30
0.000000
  70
    32
  0
VERTEX
  8
0
  5
98E
 10
35.3599
 20
54.3665
 30
0.000000
  70
    32
  0
VERTEX
  8
0
  5
98F
 10
35.3599
 20
54.3628
 30
0.000000
  70
    32
  0
VERTEX
  8
0
  5
990
 10
35.3599
 20
54.3592
 30
0.000000
  70
    32
  0
VERTEX
  8
0
  5
991
 10
35.3599
 20
54.3556
 30
0.000000
  70
    32
  0
VERTEX
  8
0
  5
992
 10
35.3599
 20
54.3521
 30
0.000000
  70
    32
  0
VERTEX
  8
0
  5
993
 10
35.3599
 20
54.3485
 30
0.000000
  70
    32
  0
VERTEX
  8
0
  5
994
 10
35.3599
 20
54.3450
 30
0.000000
  70
    32
  0
VERTEX
  8
0
  5
995
 10
35.3599
 20
54.3415
 30
0.000000
  70
    32
  0
VERTEX
  8
0
  5
996
 10
35.3599
 20
54.3380
 30
0.000000
  70
    32
  0
VERTEX
  8
0
  5
997
 10
35.3599
 20
54.3345
 30
0.000000
  70
    32
  0
VERTEX
  8
0
  5
998
 10
35.3599
 20
54.3311
 30
0.000000
  70
    32
  0
VERTEX
  8
0
  5
999
 10
35.3599
 20
54.3277
 30
0.000000
  70
    32
  0
VERTEX
  8
0
  5
99A
 10
35.3599
 20
54.3243
 30
0.000000
  70
    32
  0
VERTEX
  8
0
  5
99B
 10
35.3599
 20
54.3210
 30
0.000000
  70
    32
  0
VERTEX
  8
0
  5
99C
 10
35.3599
 20
54.3177
 30
0.000000
  70
    32
  0
VERTEX
  8
0
  5
99D
 10
35.3599
 20
54.3144
 30
0.000000
  70
    32
  0
VERTEX
  8
0
  5
99E
 10
35.3599
 20
54.3112
 30
0.000000
  70
    32
  0
VERTEX
  8
0
  5
99F
 10
35.3599
 20
54.3080
 30
0.000000
  70
    32
  0
VERTEX
  8
0
  5
9A0
 10
35.3599
 20
54.3049
 30
0.000000
  70
    32
  0
VERTEX
  8
0
  5
9A1
 10
35.3599
 20
54.3018
 30
0.000000
  70
    32
  0
VERTEX
  8
0
  5
9A2
 10
35.3599
 20
54.2987
 30
0.000000
  70
    32
  0
VERTEX
  8
0
  5
9A3
 10
35.3599
 20
54.2957
 30
0.000000
  70
    32
  0
VERTEX
  8
0
  5
9A4
 10
35.3599
 20
54.2928
 30
0.000000
  70
    32
  0
VERTEX
  8
0
  5
9A5
 10
35.3599
 20
54.2899
 30
0.000000
  70
    32
  0
VERTEX
  8
0
  5
9A6
 10
35.3599
 20
54.2870
 30
0.000000
  70
    32
  0
VERTEX
  8
0
  5
9A7
 10
35.3599
 20
54.2842
 30
0.000000
  70
    32
  0
VERTEX
  8
0
  5
9A8
 10
35.3599
 20
54.2815
 30
0.000000
  70
    32
  0
VERTEX
  8
0
  5
9A9
 10
35.3599
 20
54.2788
 30
0.000000
  70
    32
  0
VERTEX
  8
0
  5
9AA
 10
35.3599
 20
54.2762
 30
0.000000
  70
    32
  0
VERTEX
  8
0
  5
9AB
 10
35.3599
 20
54.2737
 30
0.000000
  70
    32
  0
VERTEX
  8
0
  5
9AC
 10
35.3599
 20
54.2712
 30
0.000000
  70
    32
  0
VERTEX
  8
0
  5
9AD
 10
35.3599
 20
54.2687
 30
0.000000
  70
    32
  0
VERTEX
  8
0
  5
9AE
 10
35.3599
 20
54.2664
 30
0.000000
  70
    32
  0
VERTEX
  8
0
  5
9AF
 10
35.3599
 20
54.2641
 30
0.000000
  70
    32
  0
VERTEX
  8
0
  5
9B0
 10
35.3599
 20
54.2619
 30
0.000000
  70
    32
  0
VERTEX
  8
0
  5
9B1
 10
35.3599
 20
54.2598
 30
0.000000
  70
    32
  0
VERTEX
  8
0
  5
9B2
 10
35.3599
 20
54.2577
 30
0.000000
  70
    32
  0
VERTEX
  8
0
  5
9B3
 10
35.3599
 20
54.2557
 30
0.000000
  70
    32
  0
VERTEX
  8
0
  5
9B4
 10
35.3599
 20
54.2538
 30
0.000000
  70
    32
  0
VERTEX
  8
0
  5
9B5
 10
35.3599
 20
54.2520
 30
0.000000
  70
    32
  0
VERTEX
  8
0
  5
9B6
 10
35.3599
 20
54.2502
 30
0.000000
  70
    32
  0
VERTEX
  8
0
  5
9B7
 10
35.3599
 20
54.2486
 30
0.000000
  70
    32
  0
VERTEX
  8
0
  5
9B8
 10
35.3599
 20
54.2470
 30
0.000000
  70
    32
  0
VERTEX
  8
0
  5
9B9
 10
35.3599
 20
54.2455
 30
0.000000
  70
    32
  0
VERTEX
  8
0
  5
9BA
 10
35.3599
 20
54.2441
 30
0.000000
  70
    32
  0
VERTEX
  8
0
  5
9BB
 10
35.3599
 20
54.2428
 30
0.000000
  70
    32
  0
VERTEX
  8
0
  5
9BC
 10
35.3599
 20
54.2416
 30
0.000000
  70
    32
  0
VERTEX
  8
0
  5
9BD
 10
35.3599
 20
54.2405
 30
0.000000
  70
    32
  0
VERTEX
  8
0
  5
9BE
 10
35.3599
 20
54.2395
 30
0.000000
  70
    32
  0
VERTEX
  8
0
  5
9BF
 10
35.3599
 20
54.2386
 30
0.000000
  70
    32
  0
VERTEX
  8
0
  5
9C0
 10
35.3599
 20
54.2378
 30
0.000000
  70
    32
  0
VERTEX
  8
0
  5
9C1
 10
35.3599
 20
54.2371
 30
0.000000
  70
    32
  0
VERTEX
  8
0
  5
9C2
 10
35.3599
 20
54.2365
 30
0.000000
  70
    32
  0
VERTEX
  8
0
  5
9C3
 10
35.3599
 20
54.2360
 30
0.000000
  70
    32
  0
VERTEX
  8
0
  5
9C4
 10
35.3599
 20
54.2356
 30
0.000000
  70
    32
  0
VERTEX
  8
0
  5
9C5
 10
35.3599
 20
54.2353
 30
0.000000
  70
    32
  0
VERTEX
  8
0
  5
9C6
 10
35.3599
 20
54.2351
 30
0.000000
  70
    32
  0
VERTEX
  8
0
  5
9C7
 10
35.3599
 20
54.2351
 30
0.000000
  70
    32
  0
SEQEND
  8
0
  5
9C8
  0
LINE
  5
45
  8
GAIKEI
 62
     1
 10
42.892662
 20
54.545339
 30
0.0
 11
42.892662
 21
54.235056
 31
0.0
  0
LINE
  5
46
  8
GAIKEI
 62
     1
 10
44.172727
 20
54.545339
 30
0.0
 11
44.172727
 21
54.235056
 31
0.0
  0
LINE
  5
47
  8
GAIKEI
 62
     1
 10
52.918185
 20
54.235056
 30
0.0
 11
53.186315
 21
53.967091
 31
0.0
  0
LINE
  5
48
  8
GAIKEI
 62
     1
 10
53.186315
 20
53.967091
 30
0.0
 11
60.02776
 21
53.967091
 31
0.0
  0
LINE
  5
49
  8
GAIKEI
 62
     1
 10
53.172098
 20
54.263323
 30
0.0
 11
53.002822
 21
54.531288
 31
0.0
  0
LINE
  5
4A
  8
GAIKEI
 62
     1
 10
60.02776
 20
53.967091
 30
0.0
 11
60.288782
 21
54.227947
 31
0.0
  0
LINE
  5
4B
  8
GAIKEI
 62
     1
 10
60.112398
 20
54.263323
 30
0.0
 11
60.281674
 21
54.531288
 31
0.0
  0
POLYLINE
  8
0
  5
9C9
  62
1
  66
     1
 10
0.000000
 20
0.000000
 30
0.000000
  70
     8
  0
VERTEX
  8
0
  5
9CA
 10
48.1299
 20
75.3885
 30
0.000000
  70
    32
  0
VERTEX
  8
0
  5
9CB
 10
48.1294
 20
75.4566
 30
0.000000
  70
    32
  0
VERTEX
  8
0
  5
9CC
 10
48.1279
 20
75.5244
 30
0.000000
  70
    32
  0
VERTEX
  8
0
  5
9CD
 10
48.1254
 20
75.5920
 30
0.000000
  70
    32
  0
VERTEX
  8
0
  5
9CE
 10
48.1220
 20
75.6593
 30
0.000000
  70
    32
  0
VERTEX
  8
0
  5
9CF
 10
48.1176
 20
75.7264
 30
0.000000
  70
    32
  0
VERTEX
  8
0
  5
9D0
 10
48.1123
 20
75.7932
 30
0.000000
  70
    32
  0
VERTEX
  8
0
  5
9D1
 10
48.1060
 20
75.8597
 30
0.000000
  70
    32
  0
VERTEX
  8
0
  5
9D2
 10
48.0987
 20
75.9260
 30
0.000000
  70
    32
  0
VERTEX
  8
0
  5
9D3
 10
48.0905
 20
75.9920
 30
0.000000
  70
    32
  0
VERTEX
  8
0
  5
9D4
 10
48.0814
 20
76.0576
 30
0.000000
  70
    32
  0
VERTEX
  8
0
  5
9D5
 10
48.0714
 20
76.1230
 30
0.000000
  70
    32
  0
VERTEX
  8
0
  5
9D6
 10
48.0605
 20
76.1881
 30
0.000000
  70
    32
  0
VERTEX
  8
0
  5
9D7
 10
48.0486
 20
76.2528
 30
0.000000
  70
    32
  0
VERTEX
  8
0
  5
9D8
 10
48.0358
 20
76.3173
 30
0.000000
  70
    32
  0
VERTEX
  8
0
  5
9D9
 10
48.0222
 20
76.3814
 30
0.000000
  70
    32
  0
VERTEX
  8
0
  5
9DA
 10
48.0076
 20
76.4452
 30
0.000000
  70
    32
  0
VERTEX
  8
0
  5
9DB
 10
47.9922
 20
76.5086
 30
0.000000
  70
    32
  0
VERTEX
  8
0
  5
9DC
 10
47.9759
 20
76.5717
 30
0.000000
  70
    32
  0
VERTEX
  8
0
  5
9DD
 10
47.9587
 20
76.6344
 30
0.000000
  70
    32
  0
VERTEX
  8
0
  5
9DE
 10
47.9407
 20
76.6968
 30
0.000000
  70
    32
  0
VERTEX
  8
0
  5
9DF
 10
47.9218
 20
76.7588
 30
0.000000
  70
    32
  0
VERTEX
  8
0
  5
9E0
 10
47.9020
 20
76.8204
 30
0.000000
  70
    32
  0
VERTEX
  8
0
  5
9E1
 10
47.8815
 20
76.8817
 30
0.000000
  70
    32
  0
VERTEX
  8
0
  5
9E2
 10
47.8600
 20
76.9425
 30
0.000000
  70
    32
  0
VERTEX
  8
0
  5
9E3
 10
47.8378
 20
77.0030
 30
0.000000
  70
    32
  0
VERTEX
  8
0
  5
9E4
 10
47.8147
 20
77.0630
 30
0.000000
  70
    32
  0
VERTEX
  8
0
  5
9E5
 10
47.7909
 20
77.1227
 30
0.000000
  70
    32
  0
VERTEX
  8
0
  5
9E6
 10
47.7662
 20
77.1819
 30
0.000000
  70
    32
  0
VERTEX
  8
0
  5
9E7
 10
47.7407
 20
77.2407
 30
0.000000
  70
    32
  0
VERTEX
  8
0
  5
9E8
 10
47.7144
 20
77.2991
 30
0.000000
  70
    32
  0
VERTEX
  8
0
  5
9E9
 10
47.6873
 20
77.3571
 30
0.000000
  70
    32
  0
VERTEX
  8
0
  5
9EA
 10
47.6595
 20
77.4146
 30
0.000000
  70
    32
  0
VERTEX
  8
0
  5
9EB
 10
47.6309
 20
77.4716
 30
0.000000
  70
    32
  0
VERTEX
  8
0
  5
9EC
 10
47.6015
 20
77.5282
 30
0.000000
  70
    32
  0
VERTEX
  8
0
  5
9ED
 10
47.5713
 20
77.5844
 30
0.000000
  70
    32
  0
VERTEX
  8
0
  5
9EE
 10
47.5404
 20
77.6400
 30
0.000000
  70
    32
  0
VERTEX
  8
0
  5
9EF
 10
47.5088
 20
77.6952
 30
0.000000
  70
    32
  0
VERTEX
  8
0
  5
9F0
 10
47.4764
 20
77.7499
 30
0.000000
  70
    32
  0
VERTEX
  8
0
  5
9F1
 10
47.4433
 20
77.8042
 30
0.000000
  70
    32
  0
VERTEX
  8
0
  5
9F2
 10
47.4094
 20
77.8579
 30
0.000000
  70
    32
  0
VERTEX
  8
0
  5
9F3
 10
47.3749
 20
77.9111
 30
0.000000
  70
    32
  0
VERTEX
  8
0
  5
9F4
 10
47.3396
 20
77.9638
 30
0.000000
  70
    32
  0
VERTEX
  8
0
  5
9F5
 10
47.3036
 20
78.0160
 30
0.000000
  70
    32
  0
VERTEX
  8
0
  5
9F6
 10
47.2669
 20
78.0676
 30
0.000000
  70
    32
  0
VERTEX
  8
0
  5
9F7
 10
47.2296
 20
78.1188
 30
0.000000
  70
    32
  0
VERTEX
  8
0
  5
9F8
 10
47.1915
 20
78.1694
 30
0.000000
  70
    32
  0
VERTEX
  8
0
  5
9F9
 10
47.1528
 20
78.2194
 30
0.000000
  70
    32
  0
VERTEX
  8
0
  5
9FA
 10
47.1134
 20
78.2689
 30
0.000000
  70
    32
  0
VERTEX
  8
0
  5
9FB
 10
47.0733
 20
78.3178
 30
0.000000
  70
    32
  0
VERTEX
  8
0
  5
9FC
 10
47.0326
 20
78.3662
 30
0.000000
  70
    32
  0
VERTEX
  8
0
  5
9FD
 10
46.9912
 20
78.4140
 30
0.000000
  70
    32
  0
VERTEX
  8
0
  5
9FE
 10
46.9492
 20
78.4612
 30
0.000000
  70
    32
  0
VERTEX
  8
0
  5
9FF
 10
46.9065
 20
78.5078
 30
0.000000
  70
    32
  0
VERTEX
  8
0
  5
A00
 10
46.8632
 20
78.5539
 30
0.000000
  70
    32
  0
VERTEX
  8
0
  5
A01
 10
46.8193
 20
78.5993
 30
0.000000
  70
    32
  0
VERTEX
  8
0
  5
A02
 10
46.7748
 20
78.6442
 30
0.000000
  70
    32
  0
VERTEX
  8
0
  5
A03
 10
46.7296
 20
78.6884
 30
0.000000
  70
    32
  0
VERTEX
  8
0
  5
A04
 10
46.6839
 20
78.7320
 30
0.000000
  70
    32
  0
VERTEX
  8
0
  5
A05
 10
46.6376
 20
78.7750
 30
0.000000
  70
    32
  0
VERTEX
  8
0
  5
A06
 10
46.5906
 20
78.8173
 30
0.000000
  70
    32
  0
VERTEX
  8
0
  5
A07
 10
46.5431
 20
78.8590
 30
0.000000
  70
    32
  0
VERTEX
  8
0
  5
A08
 10
46.4950
 20
78.9001
 30
0.000000
  70
    32
  0
VERTEX
  8
0
  5
A09
 10
46.4464
 20
78.9404
 30
0.000000
  70
    32
  0
VERTEX
  8
0
  5
A0A
 10
46.3972
 20
78.9802
 30
0.000000
  70
    32
  0
VERTEX
  8
0
  5
A0B
 10
46.3474
 20
79.0193
 30
0.000000
  70
    32
  0
VERTEX
  8
0
  5
A0C
 10
46.2971
 20
79.0577
 30
0.000000
  70
    32
  0
VERTEX
  8
0
  5
A0D
 10
46.2462
 20
79.0954
 30
0.000000
  70
    32
  0
VERTEX
  8
0
  5
A0E
 10
46.1948
 20
79.1324
 30
0.000000
  70
    32
  0
VERTEX
  8
0
  5
A0F
 10
46.1429
 20
79.1687
 30
0.000000
  70
    32
  0
VERTEX
  8
0
  5
A10
 10
46.0905
 20
79.2044
 30
0.000000
  70
    32
  0
VERTEX
  8
0
  5
A11
 10
46.0375
 20
79.2393
 30
0.000000
  70
    32
  0
VERTEX
  8
0
  5
A12
 10
45.9840
 20
79.2735
 30
0.000000
  70
    32
  0
VERTEX
  8
0
  5
A13
 10
45.9301
 20
79.3070
 30
0.000000
  70
    32
  0
VERTEX
  8
0
  5
A14
 10
45.8756
 20
79.3397
 30
0.000000
  70
    32
  0
VERTEX
  8
0
  5
A15
 10
45.8207
 20
79.3717
 30
0.000000
  70
    32
  0
VERTEX
  8
0
  5
A16
 10
45.7652
 20
79.4030
 30
0.000000
  70
    32
  0
VERTEX
  8
0
  5
A17
 10
45.7093
 20
79.4335
 30
0.000000
  70
    32
  0
VERTEX
  8
0
  5
A18
 10
45.6530
 20
79.4633
 30
0.000000
  70
    32
  0
VERTEX
  8
0
  5
A19
 10
45.5961
 20
79.4923
 30
0.000000
  70
    32
  0
VERTEX
  8
0
  5
A1A
 10
45.5388
 20
79.5205
 30
0.000000
  70
    32
  0
VERTEX
  8
0
  5
A1B
 10
45.4811
 20
79.5480
 30
0.000000
  70
    32
  0
VERTEX
  8
0
  5
A1C
 10
45.4229
 20
79.5747
 30
0.000000
  70
    32
  0
VERTEX
  8
0
  5
A1D
 10
45.3643
 20
79.6006
 30
0.000000
  70
    32
  0
VERTEX
  8
0
  5
A1E
 10
45.3053
 20
79.6257
 30
0.000000
  70
    32
  0
VERTEX
  8
0
  5
A1F
 10
45.2459
 20
79.6499
 30
0.000000
  70
    32
  0
VERTEX
  8
0
  5
A20
 10
45.1860
 20
79.6734
 30
0.000000
  70
    32
  0
VERTEX
  8
0
  5
A21
 10
45.1258
 20
79.6961
 30
0.000000
  70
    32
  0
VERTEX
  8
0
  5
A22
 10
45.0651
 20
79.7179
 30
0.000000
  70
    32
  0
VERTEX
  8
0
  5
A23
 10
45.0040
 20
79.7389
 30
0.000000
  70
    32
  0
VERTEX
  8
0
  5
A24
 10
44.9426
 20
79.7591
 30
0.000000
  70
    32
  0
VERTEX
  8
0
  5
A25
 10
44.8808
 20
79.7784
 30
0.000000
  70
    32
  0
VERTEX
  8
0
  5
A26
 10
44.8186
 20
79.7968
 30
0.000000
  70
    32
  0
VERTEX
  8
0
  5
A27
 10
44.7560
 20
79.8144
 30
0.000000
  70
    32
  0
VERTEX
  8
0
  5
A28
 10
44.6931
 20
79.8312
 30
0.000000
  70
    32
  0
VERTEX
  8
0
  5
A29
 10
44.6299
 20
79.8471
 30
0.000000
  70
    32
  0
VERTEX
  8
0
  5
A2A
 10
44.5663
 20
79.8620
 30
0.000000
  70
    32
  0
VERTEX
  8
0
  5
A2B
 10
44.5023
 20
79.8762
 30
0.000000
  70
    32
  0
VERTEX
  8
0
  5
A2C
 10
44.4381
 20
79.8894
 30
0.000000
  70
    32
  0
VERTEX
  8
0
  5
A2D
 10
44.3735
 20
79.9017
 30
0.000000
  70
    32
  0
VERTEX
  8
0
  5
A2E
 10
44.3085
 20
79.9131
 30
0.000000
  70
    32
  0
VERTEX
  8
0
  5
A2F
 10
44.2433
 20
79.9236
 30
0.000000
  70
    32
  0
VERTEX
  8
0
  5
A30
 10
44.1778
 20
79.9332
 30
0.000000
  70
    32
  0
VERTEX
  8
0
  5
A31
 10
44.1120
 20
79.9418
 30
0.000000
  70
    32
  0
VERTEX
  8
0
  5
A32
 10
44.0459
 20
79.9495
 30
0.000000
  70
    32
  0
VERTEX
  8
0
  5
A33
 10
43.9795
 20
79.9563
 30
0.000000
  70
    32
  0
VERTEX
  8
0
  5
A34
 10
43.9128
 20
79.9621
 30
0.000000
  70
    32
  0
VERTEX
  8
0
  5
A35
 10
43.8459
 20
79.9670
 30
0.000000
  70
    32
  0
VERTEX
  8
0
  5
A36
 10
43.7787
 20
79.9709
 30
0.000000
  70
    32
  0
VERTEX
  8
0
  5
A37
 10
43.7112
 20
79.9738
 30
0.000000
  70
    32
  0
VERTEX
  8
0
  5
A38
 10
43.6435
 20
79.9758
 30
0.000000
  70
    32
  0
VERTEX
  8
0
  5
A39
 10
43.5756
 20
79.9768
 30
0.000000
  70
    32
  0
VERTEX
  8
0
  5
A3A
 10
43.5246
 20
79.9769
 30
0.000000
  70
    32
  0
VERTEX
  8
0
  5
A3B
 10
43.4907
 20
79.9766
 30
0.000000
  70
    32
  0
VERTEX
  8
0
  5
A3C
 10
43.4569
 20
79.9762
 30
0.000000
  70
    32
  0
VERTEX
  8
0
  5
A3D
 10
43.4232
 20
79.9754
 30
0.000000
  70
    32
  0
VERTEX
  8
0
  5
A3E
 10
43.3896
 20
79.9744
 30
0.000000
  70
    32
  0
VERTEX
  8
0
  5
A3F
 10
43.3560
 20
79.9732
 30
0.000000
  70
    32
  0
VERTEX
  8
0
  5
A40
 10
43.3224
 20
79.9718
 30
0.000000
  70
    32
  0
VERTEX
  8
0
  5
A41
 10
43.2890
 20
79.9701
 30
0.000000
  70
    32
  0
VERTEX
  8
0
  5
A42
 10
43.2555
 20
79.9681
 30
0.000000
  70
    32
  0
VERTEX
  8
0
  5
A43
 10
43.2222
 20
79.9660
 30
0.000000
  70
    32
  0
VERTEX
  8
0
  5
A44
 10
43.1889
 20
79.9636
 30
0.000000
  70
    32
  0
VERTEX
  8
0
  5
A45
 10
43.1557
 20
79.9609
 30
0.000000
  70
    32
  0
VERTEX
  8
0
  5
A46
 10
43.1226
 20
79.9580
 30
0.000000
  70
    32
  0
VERTEX
  8
0
  5
A47
 10
43.0895
 20
79.9549
 30
0.000000
  70
    32
  0
VERTEX
  8
0
  5
A48
 10
43.0565
 20
79.9516
 30
0.000000
  70
    32
  0
VERTEX
  8
0
  5
A49
 10
43.0235
 20
79.9480
 30
0.000000
  70
    32
  0
VERTEX
  8
0
  5
A4A
 10
42.9907
 20
79.9442
 30
0.000000
  70
    32
  0
VERTEX
  8
0
  5
A4B
 10
42.9579
 20
79.9401
 30
0.000000
  70
    32
  0
VERTEX
  8
0
  5
A4C
 10
42.9251
 20
79.9359
 30
0.000000
  70
    32
  0
VERTEX
  8
0
  5
A4D
 10
42.8925
 20
79.9314
 30
0.000000
  70
    32
  0
VERTEX
  8
0
  5
A4E
 10
42.8599
 20
79.9266
 30
0.000000
  70
    32
  0
VERTEX
  8
0
  5
A4F
 10
42.8274
 20
79.9217
 30
0.000000
  70
    32
  0
VERTEX
  8
0
  5
A50
 10
42.7949
 20
79.9165
 30
0.000000
  70
    32
  0
VERTEX
  8
0
  5
A51
 10
42.7626
 20
79.9111
 30
0.000000
  70
    32
  0
VERTEX
  8
0
  5
A52
 10
42.7303
 20
79.9054
 30
0.000000
  70
    32
  0
VERTEX
  8
0
  5
A53
 10
42.6981
 20
79.8995
 30
0.000000
  70
    32
  0
VERTEX
  8
0
  5
A54
 10
42.6660
 20
79.8935
 30
0.000000
  70
    32
  0
VERTEX
  8
0
  5
A55
 10
42.6339
 20
79.8871
 30
0.000000
  70
    32
  0
VERTEX
  8
0
  5
A56
 10
42.6020
 20
79.8806
 30
0.000000
  70
    32
  0
VERTEX
  8
0
  5
A57
 10
42.5701
 20
79.8739
 30
0.000000
  70
    32
  0
VERTEX
  8
0
  5
A58
 10
42.5383
 20
79.8669
 30
0.000000
  70
    32
  0
VERTEX
  8
0
  5
A59
 10
42.5066
 20
79.8597
 30
0.000000
  70
    32
  0
VERTEX
  8
0
  5
A5A
 10
42.4749
 20
79.8523
 30
0.000000
  70
    32
  0
VERTEX
  8
0
  5
A5B
 10
42.4434
 20
79.8446
 30
0.000000
  70
    32
  0
VERTEX
  8
0
  5
A5C
 10
42.4119
 20
79.8368
 30
0.000000
  70
    32
  0
VERTEX
  8
0
  5
A5D
 10
42.3805
 20
79.8287
 30
0.000000
  70
    32
  0
VERTEX
  8
0
  5
A5E
 10
42.3492
 20
79.8205
 30
0.000000
  70
    32
  0
VERTEX
  8
0
  5
A5F
 10
42.3180
 20
79.8120
 30
0.000000
  70
    32
  0
VERTEX
  8
0
  5
A60
 10
42.2869
 20
79.8032
 30
0.000000
  70
    32
  0
VERTEX
  8
0
  5
A61
 10
42.2559
 20
79.7943
 30
0.000000
  70
    32
  0
VERTEX
  8
0
  5
A62
 10
42.2249
 20
79.7852
 30
0.000000
  70
    32
  0
VERTEX
  8
0
  5
A63
 10
42.1941
 20
79.7759
 30
0.000000
  70
    32
  0
VERTEX
  8
0
  5
A64
 10
42.1633
 20
79.7663
 30
0.000000
  70
    32
  0
VERTEX
  8
0
  5
A65
 10
42.1327
 20
79.7565
 30
0.000000
  70
    32
  0
VERTEX
  8
0
  5
A66
 10
42.1021
 20
79.7466
 30
0.000000
  70
    32
  0
VERTEX
  8
0
  5
A67
 10
42.0716
 20
79.7364
 30
0.000000
  70
    32
  0
VERTEX
  8
0
  5
A68
 10
42.0413
 20
79.7260
 30
0.000000
  70
    32
  0
VERTEX
  8
0
  5
A69
 10
42.0110
 20
79.7154
 30
0.000000
  70
    32
  0
VERTEX
  8
0
  5
A6A
 10
41.9808
 20
79.7046
 30
0.000000
  70
    32
  0
VERTEX
  8
0
  5
A6B
 10
41.9507
 20
79.6936
 30
0.000000
  70
    32
  0
VERTEX
  8
0
  5
A6C
 10
41.9207
 20
79.6824
 30
0.000000
  70
    32
  0
VERTEX
  8
0
  5
A6D
 10
41.8908
 20
79.6710
 30
0.000000
  70
    32
  0
VERTEX
  8
0
  5
A6E
 10
41.8610
 20
79.6594
 30
0.000000
  70
    32
  0
VERTEX
  8
0
  5
A6F
 10
41.8314
 20
79.6476
 30
0.000000
  70
    32
  0
VERTEX
  8
0
  5
A70
 10
41.8018
 20
79.6355
 30
0.000000
  70
    32
  0
VERTEX
  8
0
  5
A71
 10
41.7723
 20
79.6233
 30
0.000000
  70
    32
  0
VERTEX
  8
0
  5
A72
 10
41.7429
 20
79.6109
 30
0.000000
  70
    32
  0
VERTEX
  8
0
  5
A73
 10
41.7136
 20
79.5983
 30
0.000000
  70
    32
  0
VERTEX
  8
0
  5
A74
 10
41.6845
 20
79.5855
 30
0.000000
  70
    32
  0
VERTEX
  8
0
  5
A75
 10
41.6554
 20
79.5725
 30
0.000000
  70
    32
  0
VERTEX
  8
0
  5
A76
 10
41.6264
 20
79.5593
 30
0.000000
  70
    32
  0
VERTEX
  8
0
  5
A77
 10
41.5976
 20
79.5459
 30
0.000000
  70
    32
  0
VERTEX
  8
0
  5
A78
 10
41.5689
 20
79.5323
 30
0.000000
  70
    32
  0
VERTEX
  8
0
  5
A79
 10
41.5402
 20
79.5186
 30
0.000000
  70
    32
  0
VERTEX
  8
0
  5
A7A
 10
41.5117
 20
79.5046
 30
0.000000
  70
    32
  0
VERTEX
  8
0
  5
A7B
 10
41.4833
 20
79.4904
 30
0.000000
  70
    32
  0
VERTEX
  8
0
  5
A7C
 10
41.4550
 20
79.4761
 30
0.000000
  70
    32
  0
VERTEX
  8
0
  5
A7D
 10
41.4268
 20
79.4615
 30
0.000000
  70
    32
  0
VERTEX
  8
0
  5
A7E
 10
41.3987
 20
79.4468
 30
0.000000
  70
    32
  0
VERTEX
  8
0
  5
A7F
 10
41.3708
 20
79.4319
 30
0.000000
  70
    32
  0
VERTEX
  8
0
  5
A80
 10
41.3430
 20
79.4168
 30
0.000000
  70
    32
  0
VERTEX
  8
0
  5
A81
 10
41.3152
 20
79.4015
 30
0.000000
  70
    32
  0
VERTEX
  8
0
  5
A82
 10
41.2876
 20
79.3860
 30
0.000000
  70
    32
  0
VERTEX
  8
0
  5
A83
 10
41.2601
 20
79.3704
 30
0.000000
  70
    32
  0
VERTEX
  8
0
  5
A84
 10
41.2328
 20
79.3545
 30
0.000000
  70
    32
  0
VERTEX
  8
0
  5
A85
 10
41.2055
 20
79.3385
 30
0.000000
  70
    32
  0
VERTEX
  8
0
  5
A86
 10
41.1784
 20
79.3223
 30
0.000000
  70
    32
  0
VERTEX
  8
0
  5
A87
 10
41.1514
 20
79.3059
 30
0.000000
  70
    32
  0
VERTEX
  8
0
  5
A88
 10
41.1245
 20
79.2894
 30
0.000000
  70
    32
  0
VERTEX
  8
0
  5
A89
 10
41.0977
 20
79.2726
 30
0.000000
  70
    32
  0
VERTEX
  8
0
  5
A8A
 10
41.0711
 20
79.2557
 30
0.000000
  70
    32
  0
VERTEX
  8
0
  5
A8B
 10
41.0446
 20
79.2386
 30
0.000000
  70
    32
  0
VERTEX
  8
0
  5
A8C
 10
41.0182
 20
79.2213
 30
0.000000
  70
    32
  0
VERTEX
  8
0
  5
A8D
 10
40.9919
 20
79.2039
 30
0.000000
  70
    32
  0
VERTEX
  8
0
  5
A8E
 10
40.9658
 20
79.1862
 30
0.000000
  70
    32
  0
VERTEX
  8
0
  5
A8F
 10
40.9398
 20
79.1684
 30
0.000000
  70
    32
  0
VERTEX
  8
0
  5
A90
 10
40.9139
 20
79.1504
 30
0.000000
  70
    32
  0
VERTEX
  8
0
  5
A91
 10
40.8881
 20
79.1323
 30
0.000000
  70
    32
  0
VERTEX
  8
0
  5
A92
 10
40.8625
 20
79.1140
 30
0.000000
  70
    32
  0
VERTEX
  8
0
  5
A93
 10
40.8370
 20
79.0955
 30
0.000000
  70
    32
  0
VERTEX
  8
0
  5
A94
 10
40.8117
 20
79.0768
 30
0.000000
  70
    32
  0
VERTEX
  8
0
  5
A95
 10
40.7865
 20
79.0580
 30
0.000000
  70
    32
  0
VERTEX
  8
0
  5
A96
 10
40.7614
 20
79.0390
 30
0.000000
  70
    32
  0
VERTEX
  8
0
  5
A97
 10
40.7364
 20
79.0198
 30
0.000000
  70
    32
  0
VERTEX
  8
0
  5
A98
 10
40.7116
 20
79.0005
 30
0.000000
  70
    32
  0
VERTEX
  8
0
  5
A99
 10
40.6869
 20
78.9810
 30
0.000000
  70
    32
  0
VERTEX
  8
0
  5
A9A
 10
40.6624
 20
78.9613
 30
0.000000
  70
    32
  0
VERTEX
  8
0
  5
A9B
 10
40.6380
 20
78.9415
 30
0.000000
  70
    32
  0
VERTEX
  8
0
  5
A9C
 10
40.6137
 20
78.9215
 30
0.000000
  70
    32
  0
VERTEX
  8
0
  5
A9D
 10
40.5896
 20
78.9013
 30
0.000000
  70
    32
  0
VERTEX
  8
0
  5
A9E
 10
40.5656
 20
78.8810
 30
0.000000
  70
    32
  0
VERTEX
  8
0
  5
A9F
 10
40.5417
 20
78.8605
 30
0.000000
  70
    32
  0
VERTEX
  8
0
  5
AA0
 10
40.5180
 20
78.8399
 30
0.000000
  70
    32
  0
VERTEX
  8
0
  5
AA1
 10
40.4945
 20
78.8191
 30
0.000000
  70
    32
  0
VERTEX
  8
0
  5
AA2
 10
40.4710
 20
78.7981
 30
0.000000
  70
    32
  0
VERTEX
  8
0
  5
AA3
 10
40.4478
 20
78.7770
 30
0.000000
  70
    32
  0
VERTEX
  8
0
  5
AA4
 10
40.4246
 20
78.7558
 30
0.000000
  70
    32
  0
VERTEX
  8
0
  5
AA5
 10
40.4017
 20
78.7343
 30
0.000000
  70
    32
  0
VERTEX
  8
0
  5
AA6
 10
40.3788
 20
78.7128
 30
0.000000
  70
    32
  0
VERTEX
  8
0
  5
AA7
 10
40.3561
 20
78.6910
 30
0.000000
  70
    32
  0
VERTEX
  8
0
  5
AA8
 10
40.3336
 20
78.6691
 30
0.000000
  70
    32
  0
VERTEX
  8
0
  5
AA9
 10
40.3112
 20
78.6471
 30
0.000000
  70
    32
  0
SEQEND
  8
0
  5
AAA
  0
POLYLINE
  8
0
  5
AAB
  62
1
  66
     1
 10
0.000000
 20
0.000000
 30
0.000000
  70
     8
  0
VERTEX
  8
0
  5
AAC
 10
49.2471
 20
75.3885
 30
0.000000
  70
    32
  0
VERTEX
  8
0
  5
AAD
 10
49.2465
 20
75.4732
 30
0.000000
  70
    32
  0
VERTEX
  8
0
  5
AAE
 10
49.2447
 20
75.5575
 30
0.000000
  70
    32
  0
VERTEX
  8
0
  5
AAF
 10
49.2416
 20
75.6416
 30
0.000000
  70
    32
  0
VERTEX
  8
0
  5
AB0
 10
49.2373
 20
75.7253
 30
0.000000
  70
    32
  0
VERTEX
  8
0
  5
AB1
 10
49.2319
 20
75.8087
 30
0.000000
  70
    32
  0
VERTEX
  8
0
  5
AB2
 10
49.2252
 20
75.8917
 30
0.000000
  70
    32
  0
VERTEX
  8
0
  5
AB3
 10
49.2174
 20
75.9745
 30
0.000000
  70
    32
  0
VERTEX
  8
0
  5
AB4
 10
49.2084
 20
76.0569
 30
0.000000
  70
    32
  0
VERTEX
  8
0
  5
AB5
 10
49.1982
 20
76.1389
 30
0.000000
  70
    32
  0
VERTEX
  8
0
  5
AB6
 10
49.1869
 20
76.2206
 30
0.000000
  70
    32
  0
VERTEX
  8
0
  5
AB7
 10
49.1744
 20
76.3018
 30
0.000000
  70
    32
  0
VERTEX
  8
0
  5
AB8
 10
49.1608
 20
76.3828
 30
0.000000
  70
    32
  0
VERTEX
  8
0
  5
AB9
 10
49.1460
 20
76.4633
 30
0.000000
  70
    32
  0
VERTEX
  8
0
  5
ABA
 10
49.1302
 20
76.5434
 30
0.000000
  70
    32
  0
VERTEX
  8
0
  5
ABB
 10
49.1132
 20
76.6231
 30
0.000000
  70
    32
  0
VERTEX
  8
0
  5
ABC
 10
49.0951
 20
76.7024
 30
0.000000
  70
    32
  0
VERTEX
  8
0
  5
ABD
 10
49.0759
 20
76.7813
 30
0.000000
  70
    32
  0
VERTEX
  8
0
  5
ABE
 10
49.0556
 20
76.8597
 30
0.000000
  70
    32
  0
VERTEX
  8
0
  5
ABF
 10
49.0343
 20
76.9377
 30
0.000000
  70
    32
  0
VERTEX
  8
0
  5
AC0
 10
49.0118
 20
77.0153
 30
0.000000
  70
    32
  0
VERTEX
  8
0
  5
AC1
 10
48.9883
 20
77.0924
 30
0.000000
  70
    32
  0
VERTEX
  8
0
  5
AC2
 10
48.9638
 20
77.1690
 30
0.000000
  70
    32
  0
VERTEX
  8
0
  5
AC3
 10
48.9382
 20
77.2452
 30
0.000000
  70
    32
  0
VERTEX
  8
0
  5
AC4
 10
48.9116
 20
77.3209
 30
0.000000
  70
    32
  0
VERTEX
  8
0
  5
AC5
 10
48.8839
 20
77.3960
 30
0.000000
  70
    32
  0
VERTEX
  8
0
  5
AC6
 10
48.8552
 20
77.4707
 30
0.000000
  70
    32
  0
VERTEX
  8
0
  5
AC7
 10
48.8255
 20
77.5449
 30
0.000000
  70
    32
  0
VERTEX
  8
0
  5
AC8
 10
48.7948
 20
77.6186
 30
0.000000
  70
    32
  0
VERTEX
  8
0
  5
AC9
 10
48.7631
 20
77.6917
 30
0.000000
  70
    32
  0
VERTEX
  8
0
  5
ACA
 10
48.7305
 20
77.7643
 30
0.000000
  70
    32
  0
VERTEX
  8
0
  5
ACB
 10
48.6968
 20
77.8364
 30
0.000000
  70
    32
  0
VERTEX
  8
0
  5
ACC
 10
48.6622
 20
77.9079
 30
0.000000
  70
    32
  0
VERTEX
  8
0
  5
ACD
 10
48.6266
 20
77.9788
 30
0.000000
  70
    32
  0
VERTEX
  8
0
  5
ACE
 10
48.5900
 20
78.0492
 30
0.000000
  70
    32
  0
VERTEX
  8
0
  5
ACF
 10
48.5526
 20
78.1190
 30
0.000000
  70
    32
  0
VERTEX
  8
0
  5
AD0
 10
48.5141
 20
78.1882
 30
0.000000
  70
    32
  0
VERTEX
  8
0
  5
AD1
 10
48.4748
 20
78.2568
 30
0.000000
  70
    32
  0
VERTEX
  8
0
  5
AD2
 10
48.4345
 20
78.3249
 30
0.000000
  70
    32
  0
VERTEX
  8
0
  5
AD3
 10
48.3933
 20
78.3923
 30
0.000000
  70
    32
  0
VERTEX
  8
0
  5
AD4
 10
48.3512
 20
78.4591
 30
0.000000
  70
    32
  0
VERTEX
  8
0
  5
AD5
 10
48.3082
 20
78.5252
 30
0.000000
  70
    32
  0
VERTEX
  8
0
  5
AD6
 10
48.2644
 20
78.5908
 30
0.000000
  70
    32
  0
VERTEX
  8
0
  5
AD7
 10
48.2196
 20
78.6557
 30
0.000000
  70
    32
  0
VERTEX
  8
0
  5
AD8
 10
48.1740
 20
78.7199
 30
0.000000
  70
    32
  0
VERTEX
  8
0
  5
AD9
 10
48.1276
 20
78.7835
 30
0.000000
  70
    32
  0
VERTEX
  8
0
  5
ADA
 10
48.0802
 20
78.8464
 30
0.000000
  70
    32
  0
VERTEX
  8
0
  5
ADB
 10
48.0321
 20
78.9086
 30
0.000000
  70
    32
  0
VERTEX
  8
0
  5
ADC
 10
47.9831
 20
78.9702
 30
0.000000
  70
    32
  0
VERTEX
  8
0
  5
ADD
 10
47.9333
 20
79.0310
 30
0.000000
  70
    32
  0
VERTEX
  8
0
  5
ADE
 10
47.8826
 20
79.0912
 30
0.000000
  70
    32
  0
VERTEX
  8
0
  5
ADF
 10
47.8312
 20
79.1506
 30
0.000000
  70
    32
  0
VERTEX
  8
0
  5
AE0
 10
47.7789
 20
79.2093
 30
0.000000
  70
    32
  0
VERTEX
  8
0
  5
AE1
 10
47.7259
 20
79.2673
 30
0.000000
  70
    32
  0
VERTEX
  8
0
  5
AE2
 10
47.6720
 20
79.3245
 30
0.000000
  70
    32
  0
VERTEX
  8
0
  5
AE3
 10
47.6174
 20
79.3810
 30
0.000000
  70
    32
  0
VERTEX
  8
0
  5
AE4
 10
47.5621
 20
79.4368
 30
0.000000
  70
    32
  0
VERTEX
  8
0
  5
AE5
 10
47.5059
 20
79.4918
 30
0.000000
  70
    32
  0
VERTEX
  8
0
  5
AE6
 10
47.4490
 20
79.5460
 30
0.000000
  70
    32
  0
VERTEX
  8
0
  5
AE7
 10
47.3914
 20
79.5994
 30
0.000000
  70
    32
  0
VERTEX
  8
0
  5
AE8
 10
47.3331
 20
79.6521
 30
0.000000
  70
    32
  0
VERTEX
  8
0
  5
AE9
 10
47.2740
 20
79.7039
 30
0.000000
  70
    32
  0
VERTEX
  8
0
  5
AEA
 10
47.2142
 20
79.7550
 30
0.000000
  70
    32
  0
VERTEX
  8
0
  5
AEB
 10
47.1537
 20
79.8052
 30
0.000000
  70
    32
  0
VERTEX
  8
0
  5
AEC
 10
47.0925
 20
79.8546
 30
0.000000
  70
    32
  0
VERTEX
  8
0
  5
AED
 10
47.0306
 20
79.9032
 30
0.000000
  70
    32
  0
VERTEX
  8
0
  5
AEE
 10
46.9680
 20
79.9509
 30
0.000000
  70
    32
  0
VERTEX
  8
0
  5
AEF
 10
46.9048
 20
79.9978
 30
0.000000
  70
    32
  0
VERTEX
  8
0
  5
AF0
 10
46.8409
 20
80.0439
 30
0.000000
  70
    32
  0
VERTEX
  8
0
  5
AF1
 10
46.7763
 20
80.0891
 30
0.000000
  70
    32
  0
VERTEX
  8
0
  5
AF2
 10
46.7111
 20
80.1334
 30
0.000000
  70
    32
  0
VERTEX
  8
0
  5
AF3
 10
46.6452
 20
80.1768
 30
0.000000
  70
    32
  0
VERTEX
  8
0
  5
AF4
 10
46.5788
 20
80.2193
 30
0.000000
  70
    32
  0
VERTEX
  8
0
  5
AF5
 10
46.5117
 20
80.2609
 30
0.000000
  70
    32
  0
VERTEX
  8
0
  5
AF6
 10
46.4439
 20
80.3017
 30
0.000000
  70
    32
  0
VERTEX
  8
0
  5
AF7
 10
46.3756
 20
80.3415
 30
0.000000
  70
    32
  0
VERTEX
  8
0
  5
AF8
 10
46.3067
 20
80.3804
 30
0.000000
  70
    32
  0
VERTEX
  8
0
  5
AF9
 10
46.2372
 20
80.4183
 30
0.000000
  70
    32
  0
VERTEX
  8
0
  5
AFA
 10
46.1671
 20
80.4553
 30
0.000000
  70
    32
  0
VERTEX
  8
0
  5
AFB
 10
46.0964
 20
80.4914
 30
0.000000
  70
    32
  0
VERTEX
  8
0
  5
AFC
 10
46.0252
 20
80.5265
 30
0.000000
  70
    32
  0
VERTEX
  8
0
  5
AFD
 10
45.9534
 20
80.5607
 30
0.000000
  70
    32
  0
VERTEX
  8
0
  5
AFE
 10
45.8811
 20
80.5938
 30
0.000000
  70
    32
  0
VERTEX
  8
0
  5
AFF
 10
45.8082
 20
80.6260
 30
0.000000
  70
    32
  0
VERTEX
  8
0
  5
B00
 10
45.7348
 20
80.6572
 30
0.000000
  70
    32
  0
VERTEX
  8
0
  5
B01
 10
45.6609
 20
80.6874
 30
0.000000
  70
    32
  0
VERTEX
  8
0
  5
B02
 10
45.5864
 20
80.7166
 30
0.000000
  70
    32
  0
VERTEX
  8
0
  5
B03
 10
45.5115
 20
80.7448
 30
0.000000
  70
    32
  0
VERTEX
  8
0
  5
B04
 10
45.4361
 20
80.7719
 30
0.000000
  70
    32
  0
VERTEX
  8
0
  5
B05
 10
45.3601
 20
80.7980
 30
0.000000
  70
    32
  0
VERTEX
  8
0
  5
B06
 10
45.2837
 20
80.8231
 30
0.000000
  70
    32
  0
VERTEX
  8
0
  5
B07
 10
45.2069
 20
80.8471
 30
0.000000
  70
    32
  0
VERTEX
  8
0
  5
B08
 10
45.1296
 20
80.8701
 30
0.000000
  70
    32
  0
VERTEX
  8
0
  5
B09
 10
45.0518
 20
80.8920
 30
0.000000
  70
    32
  0
VERTEX
  8
0
  5
B0A
 10
44.9735
 20
80.9128
 30
0.000000
  70
    32
  0
VERTEX
  8
0
  5
B0B
 10
44.8949
 20
80.9325
 30
0.000000
  70
    32
  0
VERTEX
  8
0
  5
B0C
 10
44.8158
 20
80.9512
 30
0.000000
  70
    32
  0
VERTEX
  8
0
  5
B0D
 10
44.7363
 20
80.9687
 30
0.000000
  70
    32
  0
VERTEX
  8
0
  5
B0E
 10
44.6564
 20
80.9851
 30
0.000000
  70
    32
  0
VERTEX
  8
0
  5
B0F
 10
44.5760
 20
81.0004
 30
0.000000
  70
    32
  0
VERTEX
  8
0
  5
B10
 10
44.4953
 20
81.0146
 30
0.000000
  70
    32
  0
VERTEX
  8
0
  5
B11
 10
44.4142
 20
81.0277
 30
0.000000
  70
    32
  0
VERTEX
  8
0
  5
B12
 10
44.3327
 20
81.0396
 30
0.000000
  70
    32
  0
VERTEX
  8
0
  5
B13
 10
44.2509
 20
81.0503
 30
0.000000
  70
    32
  0
VERTEX
  8
0
  5
B14
 10
44.1687
 20
81.0599
 30
0.000000
  70
    32
  0
VERTEX
  8
0
  5
B15
 10
44.0861
 20
81.0683
 30
0.000000
  70
    32
  0
VERTEX
  8
0
  5
B16
 10
44.0032
 20
81.0756
 30
0.000000
  70
    32
  0
VERTEX
  8
0
  5
B17
 10
43.9200
 20
81.0816
 30
0.000000
  70
    32
  0
VERTEX
  8
0
  5
B18
 10
43.8364
 20
81.0865
 30
0.000000
  70
    32
  0
VERTEX
  8
0
  5
B19
 10
43.7525
 20
81.0902
 30
0.000000
  70
    32
  0
VERTEX
  8
0
  5
B1A
 10
43.6683
 20
81.0926
 30
0.000000
  70
    32
  0
VERTEX
  8
0
  5
B1B
 10
43.5839
 20
81.0938
 30
0.000000
  70
    32
  0
VERTEX
  8
0
  5
B1C
 10
43.5203
 20
81.0939
 30
0.000000
  70
    32
  0
VERTEX
  8
0
  5
B1D
 10
43.4780
 20
81.0936
 30
0.000000
  70
    32
  0
VERTEX
  8
0
  5
B1E
 10
43.4358
 20
81.0930
 30
0.000000
  70
    32
  0
VERTEX
  8
0
  5
B1F
 10
43.3936
 20
81.0921
 30
0.000000
  70
    32
  0
VERTEX
  8
0
  5
B20
 10
43.3515
 20
81.0909
 30
0.000000
  70
    32
  0
VERTEX
  8
0
  5
B21
 10
43.3095
 20
81.0894
 30
0.000000
  70
    32
  0
VERTEX
  8
0
  5
B22
 10
43.2675
 20
81.0875
 30
0.000000
  70
    32
  0
VERTEX
  8
0
  5
B23
 10
43.2257
 20
81.0854
 30
0.000000
  70
    32
  0
VERTEX
  8
0
  5
B24
 10
43.1839
 20
81.0830
 30
0.000000
  70
    32
  0
VERTEX
  8
0
  5
B25
 10
43.1422
 20
81.0802
 30
0.000000
  70
    32
  0
VERTEX
  8
0
  5
B26
 10
43.1006
 20
81.0772
 30
0.000000
  70
    32
  0
VERTEX
  8
0
  5
B27
 10
43.0591
 20
81.0739
 30
0.000000
  70
    32
  0
VERTEX
  8
0
  5
B28
 10
43.0176
 20
81.0703
 30
0.000000
  70
    32
  0
VERTEX
  8
0
  5
B29
 10
42.9763
 20
81.0663
 30
0.000000
  70
    32
  0
VERTEX
  8
0
  5
B2A
 10
42.9350
 20
81.0621
 30
0.000000
  70
    32
  0
VERTEX
  8
0
  5
B2B
 10
42.8938
 20
81.0576
 30
0.000000
  70
    32
  0
VERTEX
  8
0
  5
B2C
 10
42.8527
 20
81.0528
 30
0.000000
  70
    32
  0
VERTEX
  8
0
  5
B2D
 10
42.8117
 20
81.0477
 30
0.000000
  70
    32
  0
VERTEX
  8
0
  5
B2E
 10
42.7708
 20
81.0424
 30
0.000000
  70
    32
  0
VERTEX
  8
0
  5
B2F
 10
42.7299
 20
81.0367
 30
0.000000
  70
    32
  0
VERTEX
  8
0
  5
B30
 10
42.6892
 20
81.0308
 30
0.000000
  70
    32
  0
VERTEX
  8
0
  5
B31
 10
42.6486
 20
81.0245
 30
0.000000
  70
    32
  0
VERTEX
  8
0
  5
B32
 10
42.6080
 20
81.0180
 30
0.000000
  70
    32
  0
VERTEX
  8
0
  5
B33
 10
42.5676
 20
81.0112
 30
0.000000
  70
    32
  0
VERTEX
  8
0
  5
B34
 10
42.5272
 20
81.0041
 30
0.000000
  70
    32
  0
VERTEX
  8
0
  5
B35
 10
42.4869
 20
80.9967
 30
0.000000
  70
    32
  0
VERTEX
  8
0
  5
B36
 10
42.4468
 20
80.9891
 30
0.000000
  70
    32
  0
VERTEX
  8
0
  5
B37
 10
42.4067
 20
80.9811
 30
0.000000
  70
    32
  0
VERTEX
  8
0
  5
B38
 10
42.3668
 20
80.9729
 30
0.000000
  70
    32
  0
VERTEX
  8
0
  5
B39
 10
42.3269
 20
80.9644
 30
0.000000
  70
    32
  0
VERTEX
  8
0
  5
B3A
 10
42.2872
 20
80.9557
 30
0.000000
  70
    32
  0
VERTEX
  8
0
  5
B3B
 10
42.2475
 20
80.9466
 30
0.000000
  70
    32
  0
VERTEX
  8
0
  5
B3C
 10
42.2080
 20
80.9373
 30
0.000000
  70
    32
  0
VERTEX
  8
0
  5
B3D
 10
42.1685
 20
80.9277
 30
0.000000
  70
    32
  0
VERTEX
  8
0
  5
B3E
 10
42.1292
 20
80.9178
 30
0.000000
  70
    32
  0
VERTEX
  8
0
  5
B3F
 10
42.0900
 20
80.9077
 30
0.000000
  70
    32
  0
VERTEX
  8
0
  5
B40
 10
42.0509
 20
80.8973
 30
0.000000
  70
    32
  0
VERTEX
  8
0
  5
B41
 10
42.0119
 20
80.8866
 30
0.000000
  70
    32
  0
VERTEX
  8
0
  5
B42
 10
41.9730
 20
80.8757
 30
0.000000
  70
    32
  0
VERTEX
  8
0
  5
B43
 10
41.9342
 20
80.8645
 30
0.000000
  70
    32
  0
VERTEX
  8
0
  5
B44
 10
41.8955
 20
80.8530
 30
0.000000
  70
    32
  0
VERTEX
  8
0
  5
B45
 10
41.8570
 20
80.8412
 30
0.000000
  70
    32
  0
VERTEX
  8
0
  5
B46
 10
41.8186
 20
80.8292
 30
0.000000
  70
    32
  0
VERTEX
  8
0
  5
B47
 10
41.7802
 20
80.8169
 30
0.000000
  70
    32
  0
VERTEX
  8
0
  5
B48
 10
41.7420
 20
80.8044
 30
0.000000
  70
    32
  0
VERTEX
  8
0
  5
B49
 10
41.7040
 20
80.7916
 30
0.000000
  70
    32
  0
VERTEX
  8
0
  5
B4A
 10
41.6660
 20
80.7786
 30
0.000000
  70
    32
  0
VERTEX
  8
0
  5
B4B
 10
41.6282
 20
80.7652
 30
0.000000
  70
    32
  0
VERTEX
  8
0
  5
B4C
 10
41.5905
 20
80.7517
 30
0.000000
  70
    32
  0
VERTEX
  8
0
  5
B4D
 10
41.5529
 20
80.7378
 30
0.000000
  70
    32
  0
VERTEX
  8
0
  5
B4E
 10
41.5154
 20
80.7238
 30
0.000000
  70
    32
  0
VERTEX
  8
0
  5
B4F
 10
41.4781
 20
80.7094
 30
0.000000
  70
    32
  0
VERTEX
  8
0
  5
B50
 10
41.4408
 20
80.6948
 30
0.000000
  70
    32
  0
VERTEX
  8
0
  5
B51
 10
41.4038
 20
80.6800
 30
0.000000
  70
    32
  0
VERTEX
  8
0
  5
B52
 10
41.3668
 20
80.6649
 30
0.000000
  70
    32
  0
VERTEX
  8
0
  5
B53
 10
41.3300
 20
80.6495
 30
0.000000
  70
    32
  0
VERTEX
  8
0
  5
B54
 10
41.2933
 20
80.6339
 30
0.000000
  70
    32
  0
VERTEX
  8
0
  5
B55
 10
41.2567
 20
80.6181
 30
0.000000
  70
    32
  0
VERTEX
  8
0
  5
B56
 10
41.2203
 20
80.6020
 30
0.000000
  70
    32
  0
VERTEX
  8
0
  5
B57
 10
41.1840
 20
80.5857
 30
0.000000
  70
    32
  0
VERTEX
  8
0
  5
B58
 10
41.1478
 20
80.5691
 30
0.000000
  70
    32
  0
VERTEX
  8
0
  5
B59
 10
41.1118
 20
80.5522
 30
0.000000
  70
    32
  0
VERTEX
  8
0
  5
B5A
 10
41.0759
 20
80.5352
 30
0.000000
  70
    32
  0
VERTEX
  8
0
  5
B5B
 10
41.0401
 20
80.5179
 30
0.000000
  70
    32
  0
VERTEX
  8
0
  5
B5C
 10
41.0045
 20
80.5003
 30
0.000000
  70
    32
  0
VERTEX
  8
0
  5
B5D
 10
40.9690
 20
80.4825
 30
0.000000
  70
    32
  0
VERTEX
  8
0
  5
B5E
 10
40.9337
 20
80.4645
 30
0.000000
  70
    32
  0
VERTEX
  8
0
  5
B5F
 10
40.8985
 20
80.4462
 30
0.000000
  70
    32
  0
VERTEX
  8
0
  5
B60
 10
40.8635
 20
80.4277
 30
0.000000
  70
    32
  0
VERTEX
  8
0
  5
B61
 10
40.8286
 20
80.4090
 30
0.000000
  70
    32
  0
VERTEX
  8
0
  5
B62
 10
40.7938
 20
80.3900
 30
0.000000
  70
    32
  0
VERTEX
  8
0
  5
B63
 10
40.7592
 20
80.3708
 30
0.000000
  70
    32
  0
VERTEX
  8
0
  5
B64
 10
40.7247
 20
80.3513
 30
0.000000
  70
    32
  0
VERTEX
  8
0
  5
B65
 10
40.6904
 20
80.3316
 30
0.000000
  70
    32
  0
VERTEX
  8
0
  5
B66
 10
40.6563
 20
80.3117
 30
0.000000
  70
    32
  0
VERTEX
  8
0
  5
B67
 10
40.6222
 20
80.2916
 30
0.000000
  70
    32
  0
VERTEX
  8
0
  5
B68
 10
40.5884
 20
80.2712
 30
0.000000
  70
    32
  0
VERTEX
  8
0
  5
B69
 10
40.5547
 20
80.2506
 30
0.000000
  70
    32
  0
VERTEX
  8
0
  5
B6A
 10
40.5211
 20
80.2298
 30
0.000000
  70
    32
  0
VERTEX
  8
0
  5
B6B
 10
40.4877
 20
80.2088
 30
0.000000
  70
    32
  0
VERTEX
  8
0
  5
B6C
 10
40.4545
 20
80.1875
 30
0.000000
  70
    32
  0
VERTEX
  8
0
  5
B6D
 10
40.4214
 20
80.1660
 30
0.000000
  70
    32
  0
VERTEX
  8
0
  5
B6E
 10
40.3885
 20
80.1443
 30
0.000000
  70
    32
  0
VERTEX
  8
0
  5
B6F
 10
40.3557
 20
80.1224
 30
0.000000
  70
    32
  0
VERTEX
  8
0
  5
B70
 10
40.3231
 20
80.1002
 30
0.000000
  70
    32
  0
VERTEX
  8
0
  5
B71
 10
40.2906
 20
80.0779
 30
0.000000
  70
    32
  0
VERTEX
  8
0
  5
B72
 10
40.2584
 20
80.0553
 30
0.000000
  70
    32
  0
VERTEX
  8
0
  5
B73
 10
40.2262
 20
80.0325
 30
0.000000
  70
    32
  0
VERTEX
  8
0
  5
B74
 10
40.1943
 20
80.0094
 30
0.000000
  70
    32
  0
VERTEX
  8
0
  5
B75
 10
40.1625
 20
79.9862
 30
0.000000
  70
    32
  0
VERTEX
  8
0
  5
B76
 10
40.1309
 20
79.9628
 30
0.000000
  70
    32
  0
VERTEX
  8
0
  5
B77
 10
40.0994
 20
79.9391
 30
0.000000
  70
    32
  0
VERTEX
  8
0
  5
B78
 10
40.0681
 20
79.9152
 30
0.000000
  70
    32
  0
VERTEX
  8
0
  5
B79
 10
40.0370
 20
79.8911
 30
0.000000
  70
    32
  0
VERTEX
  8
0
  5
B7A
 10
40.0061
 20
79.8668
 30
0.000000
  70
    32
  0
VERTEX
  8
0
  5
B7B
 10
39.9753
 20
79.8423
 30
0.000000
  70
    32
  0
VERTEX
  8
0
  5
B7C
 10
39.9447
 20
79.8176
 30
0.000000
  70
    32
  0
VERTEX
  8
0
  5
B7D
 10
39.9143
 20
79.7927
 30
0.000000
  70
    32
  0
VERTEX
  8
0
  5
B7E
 10
39.8840
 20
79.7676
 30
0.000000
  70
    32
  0
VERTEX
  8
0
  5
B7F
 10
39.8539
 20
79.7423
 30
0.000000
  70
    32
  0
VERTEX
  8
0
  5
B80
 10
39.8240
 20
79.7168
 30
0.000000
  70
    32
  0
VERTEX
  8
0
  5
B81
 10
39.7943
 20
79.6910
 30
0.000000
  70
    32
  0
VERTEX
  8
0
  5
B82
 10
39.7648
 20
79.6651
 30
0.000000
  70
    32
  0
VERTEX
  8
0
  5
B83
 10
39.7354
 20
79.6390
 30
0.000000
  70
    32
  0
VERTEX
  8
0
  5
B84
 10
39.7062
 20
79.6126
 30
0.000000
  70
    32
  0
VERTEX
  8
0
  5
B85
 10
39.6772
 20
79.5861
 30
0.000000
  70
    32
  0
VERTEX
  8
0
  5
B86
 10
39.6484
 20
79.5594
 30
0.000000
  70
    32
  0
VERTEX
  8
0
  5
B87
 10
39.6198
 20
79.5325
 30
0.000000
  70
    32
  0
VERTEX
  8
0
  5
B88
 10
39.5913
 20
79.5054
 30
0.000000
  70
    32
  0
VERTEX
  8
0
  5
B89
 10
39.5631
 20
79.4781
 30
0.000000
  70
    32
  0
VERTEX
  8
0
  5
B8A
 10
39.5350
 20
79.4506
 30
0.000000
  70
    32
  0
VERTEX
  8
0
  5
B8B
 10
39.5072
 20
79.4229
 30
0.000000
  70
    32
  0
SEQEND
  8
0
  5
B8C
  0
POLYLINE
  8
0
  5
B8D
  62
1
  66
     1
 10
0.000000
 20
0.000000
 30
0.000000
  70
     8
  0
VERTEX
  8
0
  5
B8E
 10
38.9447
 20
75.3542
 30
0.000000
  70
    32
  0
VERTEX
  8
0
  5
B8F
 10
38.9442
 20
75.3622
 30
0.000000
  70
    32
  0
VERTEX
  8
0
  5
B90
 10
38.9436
 20
75.3701
 30
0.000000
  70
    32
  0
VERTEX
  8
0
  5
B91
 10
38.9429
 20
75.3780
 30
0.000000
  70
    32
  0
VERTEX
  8
0
  5
B92
 10
38.9420
 20
75.3859
 30
0.000000
  70
    32
  0
VERTEX
  8
0
  5
B93
 10
38.9411
 20
75.3937
 30
0.000000
  70
    32
  0
VERTEX
  8
0
  5
B94
 10
38.9401
 20
75.4015
 30
0.000000
  70
    32
  0
VERTEX
  8
0
  5
B95
 10
38.9389
 20
75.4093
 30
0.000000
  70
    32
  0
VERTEX
  8
0
  5
B96
 10
38.9377
 20
75.4170
 30
0.000000
  70
    32
  0
VERTEX
  8
0
  5
B97
 10
38.9363
 20
75.4247
 30
0.000000
  70
    32
  0
VERTEX
  8
0
  5
B98
 10
38.9349
 20
75.4323
 30
0.000000
  70
    32
  0
VERTEX
  8
0
  5
B99
 10
38.9333
 20
75.4400
 30
0.000000
  70
    32
  0
VERTEX
  8
0
  5
B9A
 10
38.9316
 20
75.4475
 30
0.000000
  70
    32
  0
VERTEX
  8
0
  5
B9B
 10
38.9299
 20
75.4551
 30
0.000000
  70
    32
  0
VERTEX
  8
0
  5
B9C
 10
38.9280
 20
75.4626
 30
0.000000
  70
    32
  0
VERTEX
  8
0
  5
B9D
 10
38.9260
 20
75.4701
 30
0.000000
  70
    32
  0
VERTEX
  8
0
  5
B9E
 10
38.9240
 20
75.4775
 30
0.000000
  70
    32
  0
VERTEX
  8
0
  5
B9F
 10
38.9218
 20
75.4849
 30
0.000000
  70
    32
  0
VERTEX
  8
0
  5
BA0
 10
38.9195
 20
75.4922
 30
0.000000
  70
    32
  0
VERTEX
  8
0
  5
BA1
 10
38.9172
 20
75.4995
 30
0.000000
  70
    32
  0
VERTEX
  8
0
  5
BA2
 10
38.9147
 20
75.5068
 30
0.000000
  70
    32
  0
VERTEX
  8
0
  5
BA3
 10
38.9122
 20
75.5140
 30
0.000000
  70
    32
  0
VERTEX
  8
0
  5
BA4
 10
38.9095
 20
75.5211
 30
0.000000
  70
    32
  0
VERTEX
  8
0
  5
BA5
 10
38.9068
 20
75.5282
 30
0.000000
  70
    32
  0
VERTEX
  8
0
  5
BA6
 10
38.9040
 20
75.5353
 30
0.000000
  70
    32
  0
VERTEX
  8
0
  5
BA7
 10
38.9010
 20
75.5423
 30
0.000000
  70
    32
  0
VERTEX
  8
0
  5
BA8
 10
38.8980
 20
75.5493
 30
0.000000
  70
    32
  0
VERTEX
  8
0
  5
BA9
 10
38.8949
 20
75.5562
 30
0.000000
  70
    32
  0
VERTEX
  8
0
  5
BAA
 10
38.8917
 20
75.5631
 30
0.000000
  70
    32
  0
VERTEX
  8
0
  5
BAB
 10
38.8884
 20
75.5699
 30
0.000000
  70
    32
  0
VERTEX
  8
0
  5
BAC
 10
38.8850
 20
75.5767
 30
0.000000
  70
    32
  0
VERTEX
  8
0
  5
BAD
 10
38.8816
 20
75.5834
 30
0.000000
  70
    32
  0
VERTEX
  8
0
  5
BAE
 10
38.8780
 20
75.5901
 30
0.000000
  70
    32
  0
VERTEX
  8
0
  5
BAF
 10
38.8744
 20
75.5967
 30
0.000000
  70
    32
  0
VERTEX
  8
0
  5
BB0
 10
38.8707
 20
75.6033
 30
0.000000
  70
    32
  0
VERTEX
  8
0
  5
BB1
 10
38.8669
 20
75.6098
 30
0.000000
  70
    32
  0
VERTEX
  8
0
  5
BB2
 10
38.8630
 20
75.6162
 30
0.000000
  70
    32
  0
VERTEX
  8
0
  5
BB3
 10
38.8590
 20
75.6226
 30
0.000000
  70
    32
  0
VERTEX
  8
0
  5
BB4
 10
38.8549
 20
75.6290
 30
0.000000
  70
    32
  0
VERTEX
  8
0
  5
BB5
 10
38.8508
 20
75.6352
 30
0.000000
  70
    32
  0
VERTEX
  8
0
  5
BB6
 10
38.8466
 20
75.6415
 30
0.000000
  70
    32
  0
VERTEX
  8
0
  5
BB7
 10
38.8423
 20
75.6476
 30
0.000000
  70
    32
  0
VERTEX
  8
0
  5
BB8
 10
38.8379
 20
75.6537
 30
0.000000
  70
    32
  0
VERTEX
  8
0
  5
BB9
 10
38.8334
 20
75.6598
 30
0.000000
  70
    32
  0
VERTEX
  8
0
  5
BBA
 10
38.8289
 20
75.6657
 30
0.000000
  70
    32
  0
VERTEX
  8
0
  5
BBB
 10
38.8243
 20
75.6716
 30
0.000000
  70
    32
  0
VERTEX
  8
0
  5
BBC
 10
38.8196
 20
75.6775
 30
0.000000
  70
    32
  0
VERTEX
  8
0
  5
BBD
 10
38.8148
 20
75.6833
 30
0.000000
  70
    32
  0
VERTEX
  8
0
  5
BBE
 10
38.8100
 20
75.6890
 30
0.000000
  70
    32
  0
VERTEX
  8
0
  5
BBF
 10
38.8050
 20
75.6947
 30
0.000000
  70
    32
  0
VERTEX
  8
0
  5
BC0
 10
38.8000
 20
75.7002
 30
0.000000
  70
    32
  0
VERTEX
  8
0
  5
BC1
 10
38.7950
 20
75.7058
 30
0.000000
  70
    32
  0
VERTEX
  8
0
  5
BC2
 10
38.7898
 20
75.7112
 30
0.000000
  70
    32
  0
VERTEX
  8
0
  5
BC3
 10
38.7846
 20
75.7166
 30
0.000000
  70
    32
  0
VERTEX
  8
0
  5
BC4
 10
38.7794
 20
75.7219
 30
0.000000
  70
    32
  0
VERTEX
  8
0
  5
BC5
 10
38.7740
 20
75.7272
 30
0.000000
  70
    32
  0
VERTEX
  8
0
  5
BC6
 10
38.7686
 20
75.7323
 30
0.000000
  70
    32
  0
VERTEX
  8
0
  5
BC7
 10
38.7631
 20
75.7374
 30
0.000000
  70
    32
  0
VERTEX
  8
0
  5
BC8
 10
38.7575
 20
75.7425
 30
0.000000
  70
    32
  0
VERTEX
  8
0
  5
BC9
 10
38.7519
 20
75.7474
 30
0.000000
  70
    32
  0
VERTEX
  8
0
  5
BCA
 10
38.7462
 20
75.7523
 30
0.000000
  70
    32
  0
VERTEX
  8
0
  5
BCB
 10
38.7405
 20
75.7571
 30
0.000000
  70
    32
  0
VERTEX
  8
0
  5
BCC
 10
38.7347
 20
75.7619
 30
0.000000
  70
    32
  0
VERTEX
  8
0
  5
BCD
 10
38.7288
 20
75.7665
 30
0.000000
  70
    32
  0
VERTEX
  8
0
  5
BCE
 10
38.7228
 20
75.7711
 30
0.000000
  70
    32
  0
VERTEX
  8
0
  5
BCF
 10
38.7168
 20
75.7756
 30
0.000000
  70
    32
  0
VERTEX
  8
0
  5
BD0
 10
38.7108
 20
75.7800
 30
0.000000
  70
    32
  0
VERTEX
  8
0
  5
BD1
 10
38.7046
 20
75.7844
 30
0.000000
  70
    32
  0
VERTEX
  8
0
  5
BD2
 10
38.6984
 20
75.7886
 30
0.000000
  70
    32
  0
VERTEX
  8
0
  5
BD3
 10
38.6922
 20
75.7928
 30
0.000000
  70
    32
  0
VERTEX
  8
0
  5
BD4
 10
38.6859
 20
75.7969
 30
0.000000
  70
    32
  0
VERTEX
  8
0
  5
BD5
 10
38.6795
 20
75.8009
 30
0.000000
  70
    32
  0
VERTEX
  8
0
  5
BD6
 10
38.6731
 20
75.8049
 30
0.000000
  70
    32
  0
VERTEX
  8
0
  5
BD7
 10
38.6666
 20
75.8087
 30
0.000000
  70
    32
  0
VERTEX
  8
0
  5
BD8
 10
38.6601
 20
75.8125
 30
0.000000
  70
    32
  0
VERTEX
  8
0
  5
BD9
 10
38.6535
 20
75.8162
 30
0.000000
  70
    32
  0
VERTEX
  8
0
  5
BDA
 10
38.6469
 20
75.8198
 30
0.000000
  70
    32
  0
VERTEX
  8
0
  5
BDB
 10
38.6402
 20
75.8233
 30
0.000000
  70
    32
  0
VERTEX
  8
0
  5
BDC
 10
38.6334
 20
75.8267
 30
0.000000
  70
    32
  0
VERTEX
  8
0
  5
BDD
 10
38.6266
 20
75.8301
 30
0.000000
  70
    32
  0
VERTEX
  8
0
  5
BDE
 10
38.6198
 20
75.8333
 30
0.000000
  70
    32
  0
VERTEX
  8
0
  5
BDF
 10
38.6129
 20
75.8365
 30
0.000000
  70
    32
  0
VERTEX
  8
0
  5
BE0
 10
38.6059
 20
75.8395
 30
0.000000
  70
    32
  0
VERTEX
  8
0
  5
BE1
 10
38.5989
 20
75.8425
 30
0.000000
  70
    32
  0
VERTEX
  8
0
  5
BE2
 10
38.5919
 20
75.8454
 30
0.000000
  70
    32
  0
VERTEX
  8
0
  5
BE3
 10
38.5848
 20
75.8482
 30
0.000000
  70
    32
  0
VERTEX
  8
0
  5
BE4
 10
38.5776
 20
75.8509
 30
0.000000
  70
    32
  0
VERTEX
  8
0
  5
BE5
 10
38.5704
 20
75.8535
 30
0.000000
  70
    32
  0
VERTEX
  8
0
  5
BE6
 10
38.5632
 20
75.8560
 30
0.000000
  70
    32
  0
VERTEX
  8
0
  5
BE7
 10
38.5559
 20
75.8584
 30
0.000000
  70
    32
  0
VERTEX
  8
0
  5
BE8
 10
38.5486
 20
75.8607
 30
0.000000
  70
    32
  0
VERTEX
  8
0
  5
BE9
 10
38.5413
 20
75.8629
 30
0.000000
  70
    32
  0
VERTEX
  8
0
  5
BEA
 10
38.5338
 20
75.8651
 30
0.000000
  70
    32
  0
VERTEX
  8
0
  5
BEB
 10
38.5264
 20
75.8671
 30
0.000000
  70
    32
  0
VERTEX
  8
0
  5
BEC
 10
38.5189
 20
75.8690
 30
0.000000
  70
    32
  0
VERTEX
  8
0
  5
BED
 10
38.5114
 20
75.8708
 30
0.000000
  70
    32
  0
VERTEX
  8
0
  5
BEE
 10
38.5038
 20
75.8725
 30
0.000000
  70
    32
  0
VERTEX
  8
0
  5
BEF
 10
38.4962
 20
75.8742
 30
0.000000
  70
    32
  0
VERTEX
  8
0
  5
BF0
 10
38.4886
 20
75.8757
 30
0.000000
  70
    32
  0
VERTEX
  8
0
  5
BF1
 10
38.4809
 20
75.8771
 30
0.000000
  70
    32
  0
VERTEX
  8
0
  5
BF2
 10
38.4732
 20
75.8784
 30
0.000000
  70
    32
  0
VERTEX
  8
0
  5
BF3
 10
38.4654
 20
75.8796
 30
0.000000
  70
    32
  0
VERTEX
  8
0
  5
BF4
 10
38.4577
 20
75.8807
 30
0.000000
  70
    32
  0
VERTEX
  8
0
  5
BF5
 10
38.4498
 20
75.8817
 30
0.000000
  70
    32
  0
VERTEX
  8
0
  5
BF6
 10
38.4420
 20
75.8826
 30
0.000000
  70
    32
  0
VERTEX
  8
0
  5
BF7
 10
38.4341
 20
75.8833
 30
0.000000
  70
    32
  0
VERTEX
  8
0
  5
BF8
 10
38.4262
 20
75.8840
 30
0.000000
  70
    32
  0
VERTEX
  8
0
  5
BF9
 10
38.4183
 20
75.8846
 30
0.000000
  70
    32
  0
VERTEX
  8
0
  5
BFA
 10
38.4103
 20
75.8850
 30
0.000000
  70
    32
  0
VERTEX
  8
0
  5
BFB
 10
38.4023
 20
75.8854
 30
0.000000
  70
    32
  0
VERTEX
  8
0
  5
BFC
 10
38.3942
 20
75.8856
 30
0.000000
  70
    32
  0
VERTEX
  8
0
  5
BFD
 10
38.3862
 20
75.8857
 30
0.000000
  70
    32
  0
VERTEX
  8
0
  5
BFE
 10
38.3783
 20
75.8857
 30
0.000000
  70
    32
  0
VERTEX
  8
0
  5
BFF
 10
38.3705
 20
75.8856
 30
0.000000
  70
    32
  0
VERTEX
  8
0
  5
C00
 10
38.3628
 20
75.8854
 30
0.000000
  70
    32
  0
VERTEX
  8
0
  5
C01
 10
38.3551
 20
75.8851
 30
0.000000
  70
    32
  0
VERTEX
  8
0
  5
C02
 10
38.3474
 20
75.8847
 30
0.000000
  70
    32
  0
VERTEX
  8
0
  5
C03
 10
38.3398
 20
75.8841
 30
0.000000
  70
    32
  0
VERTEX
  8
0
  5
C04
 10
38.3322
 20
75.8835
 30
0.000000
  70
    32
  0
VERTEX
  8
0
  5
C05
 10
38.3246
 20
75.8828
 30
0.000000
  70
    32
  0
VERTEX
  8
0
  5
C06
 10
38.3170
 20
75.8820
 30
0.000000
  70
    32
  0
VERTEX
  8
0
  5
C07
 10
38.3095
 20
75.8811
 30
0.000000
  70
    32
  0
VERTEX
  8
0
  5
C08
 10
38.3020
 20
75.8800
 30
0.000000
  70
    32
  0
VERTEX
  8
0
  5
C09
 10
38.2945
 20
75.8789
 30
0.000000
  70
    32
  0
VERTEX
  8
0
  5
C0A
 10
38.2871
 20
75.8777
 30
0.000000
  70
    32
  0
VERTEX
  8
0
  5
C0B
 10
38.2797
 20
75.8764
 30
0.000000
  70
    32
  0
VERTEX
  8
0
  5
C0C
 10
38.2723
 20
75.8750
 30
0.000000
  70
    32
  0
VERTEX
  8
0
  5
C0D
 10
38.2650
 20
75.8735
 30
0.000000
  70
    32
  0
VERTEX
  8
0
  5
C0E
 10
38.2577
 20
75.8719
 30
0.000000
  70
    32
  0
VERTEX
  8
0
  5
C0F
 10
38.2505
 20
75.8702
 30
0.000000
  70
    32
  0
VERTEX
  8
0
  5
C10
 10
38.2432
 20
75.8684
 30
0.000000
  70
    32
  0
VERTEX
  8
0
  5
C11
 10
38.2360
 20
75.8666
 30
0.000000
  70
    32
  0
VERTEX
  8
0
  5
C12
 10
38.2289
 20
75.8646
 30
0.000000
  70
    32
  0
VERTEX
  8
0
  5
C13
 10
38.2218
 20
75.8626
 30
0.000000
  70
    32
  0
VERTEX
  8
0
  5
C14
 10
38.2147
 20
75.8604
 30
0.000000
  70
    32
  0
VERTEX
  8
0
  5
C15
 10
38.2077
 20
75.8582
 30
0.000000
  70
    32
  0
VERTEX
  8
0
  5
C16
 10
38.2007
 20
75.8558
 30
0.000000
  70
    32
  0
VERTEX
  8
0
  5
C17
 10
38.1937
 20
75.8534
 30
0.000000
  70
    32
  0
VERTEX
  8
0
  5
C18
 10
38.1868
 20
75.8509
 30
0.000000
  70
    32
  0
VERTEX
  8
0
  5
C19
 10
38.1800
 20
75.8483
 30
0.000000
  70
    32
  0
VERTEX
  8
0
  5
C1A
 10
38.1731
 20
75.8457
 30
0.000000
  70
    32
  0
VERTEX
  8
0
  5
C1B
 10
38.1664
 20
75.8429
 30
0.000000
  70
    32
  0
VERTEX
  8
0
  5
C1C
 10
38.1596
 20
75.8401
 30
0.000000
  70
    32
  0
VERTEX
  8
0
  5
C1D
 10
38.1529
 20
75.8371
 30
0.000000
  70
    32
  0
VERTEX
  8
0
  5
C1E
 10
38.1463
 20
75.8341
 30
0.000000
  70
    32
  0
VERTEX
  8
0
  5
C1F
 10
38.1397
 20
75.8310
 30
0.000000
  70
    32
  0
VERTEX
  8
0
  5
C20
 10
38.1331
 20
75.8278
 30
0.000000
  70
    32
  0
VERTEX
  8
0
  5
C21
 10
38.1266
 20
75.8246
 30
0.000000
  70
    32
  0
VERTEX
  8
0
  5
C22
 10
38.1202
 20
75.8212
 30
0.000000
  70
    32
  0
VERTEX
  8
0
  5
C23
 10
38.1138
 20
75.8178
 30
0.000000
  70
    32
  0
VERTEX
  8
0
  5
C24
 10
38.1074
 20
75.8143
 30
0.000000
  70
    32
  0
VERTEX
  8
0
  5
C25
 10
38.1011
 20
75.8107
 30
0.000000
  70
    32
  0
VERTEX
  8
0
  5
C26
 10
38.0949
 20
75.8070
 30
0.000000
  70
    32
  0
VERTEX
  8
0
  5
C27
 10
38.0887
 20
75.8033
 30
0.000000
  70
    32
  0
VERTEX
  8
0
  5
C28
 10
38.0825
 20
75.7995
 30
0.000000
  70
    32
  0
VERTEX
  8
0
  5
C29
 10
38.0764
 20
75.7956
 30
0.000000
  70
    32
  0
VERTEX
  8
0
  5
C2A
 10
38.0704
 20
75.7916
 30
0.000000
  70
    32
  0
VERTEX
  8
0
  5
C2B
 10
38.0644
 20
75.7876
 30
0.000000
  70
    32
  0
VERTEX
  8
0
  5
C2C
 10
38.0584
 20
75.7835
 30
0.000000
  70
    32
  0
VERTEX
  8
0
  5
C2D
 10
38.0526
 20
75.7793
 30
0.000000
  70
    32
  0
VERTEX
  8
0
  5
C2E
 10
38.0467
 20
75.7750
 30
0.000000
  70
    32
  0
VERTEX
  8
0
  5
C2F
 10
38.0410
 20
75.7707
 30
0.000000
  70
    32
  0
VERTEX
  8
0
  5
C30
 10
38.0353
 20
75.7663
 30
0.000000
  70
    32
  0
VERTEX
  8
0
  5
C31
 10
38.0296
 20
75.7618
 30
0.000000
  70
    32
  0
VERTEX
  8
0
  5
C32
 10
38.0240
 20
75.7572
 30
0.000000
  70
    32
  0
VERTEX
  8
0
  5
C33
 10
38.0185
 20
75.7526
 30
0.000000
  70
    32
  0
VERTEX
  8
0
  5
C34
 10
38.0130
 20
75.7479
 30
0.000000
  70
    32
  0
VERTEX
  8
0
  5
C35
 10
38.0076
 20
75.7431
 30
0.000000
  70
    32
  0
VERTEX
  8
0
  5
C36
 10
38.0023
 20
75.7383
 30
0.000000
  70
    32
  0
VERTEX
  8
0
  5
C37
 10
37.9970
 20
75.7334
 30
0.000000
  70
    32
  0
VERTEX
  8
0
  5
C38
 10
37.9918
 20
75.7285
 30
0.000000
  70
    32
  0
VERTEX
  8
0
  5
C39
 10
37.9866
 20
75.7234
 30
0.000000
  70
    32
  0
VERTEX
  8
0
  5
C3A
 10
37.9815
 20
75.7183
 30
0.000000
  70
    32
  0
VERTEX
  8
0
  5
C3B
 10
37.9765
 20
75.7132
 30
0.000000
  70
    32
  0
VERTEX
  8
0
  5
C3C
 10
37.9715
 20
75.7080
 30
0.000000
  70
    32
  0
VERTEX
  8
0
  5
C3D
 10
37.9666
 20
75.7027
 30
0.000000
  70
    32
  0
VERTEX
  8
0
  5
C3E
 10
37.9618
 20
75.6973
 30
0.000000
  70
    32
  0
VERTEX
  8
0
  5
C3F
 10
37.9570
 20
75.6919
 30
0.000000
  70
    32
  0
VERTEX
  8
0
  5
C40
 10
37.9523
 20
75.6865
 30
0.000000
  70
    32
  0
VERTEX
  8
0
  5
C41
 10
37.9477
 20
75.6809
 30
0.000000
  70
    32
  0
VERTEX
  8
0
  5
C42
 10
37.9431
 20
75.6754
 30
0.000000
  70
    32
  0
VERTEX
  8
0
  5
C43
 10
37.9387
 20
75.6697
 30
0.000000
  70
    32
  0
VERTEX
  8
0
  5
C44
 10
37.9342
 20
75.6640
 30
0.000000
  70
    32
  0
VERTEX
  8
0
  5
C45
 10
37.9299
 20
75.6582
 30
0.000000
  70
    32
  0
VERTEX
  8
0
  5
C46
 10
37.9256
 20
75.6524
 30
0.000000
  70
    32
  0
VERTEX
  8
0
  5
C47
 10
37.9214
 20
75.6465
 30
0.000000
  70
    32
  0
VERTEX
  8
0
  5
C48
 10
37.9173
 20
75.6406
 30
0.000000
  70
    32
  0
VERTEX
  8
0
  5
C49
 10
37.9133
 20
75.6346
 30
0.000000
  70
    32
  0
VERTEX
  8
0
  5
C4A
 10
37.9093
 20
75.6286
 30
0.000000
  70
    32
  0
VERTEX
  8
0
  5
C4B
 10
37.9054
 20
75.6225
 30
0.000000
  70
    32
  0
VERTEX
  8
0
  5
C4C
 10
37.9016
 20
75.6163
 30
0.000000
  70
    32
  0
VERTEX
  8
0
  5
C4D
 10
37.8978
 20
75.6101
 30
0.000000
  70
    32
  0
VERTEX
  8
0
  5
C4E
 10
37.8942
 20
75.6039
 30
0.000000
  70
    32
  0
VERTEX
  8
0
  5
C4F
 10
37.8906
 20
75.5976
 30
0.000000
  70
    32
  0
VERTEX
  8
0
  5
C50
 10
37.8871
 20
75.5912
 30
0.000000
  70
    32
  0
VERTEX
  8
0
  5
C51
 10
37.8836
 20
75.5848
 30
0.000000
  70
    32
  0
VERTEX
  8
0
  5
C52
 10
37.8803
 20
75.5784
 30
0.000000
  70
    32
  0
VERTEX
  8
0
  5
C53
 10
37.8770
 20
75.5719
 30
0.000000
  70
    32
  0
VERTEX
  8
0
  5
C54
 10
37.8738
 20
75.5653
 30
0.000000
  70
    32
  0
VERTEX
  8
0
  5
C55
 10
37.8707
 20
75.5587
 30
0.000000
  70
    32
  0
VERTEX
  8
0
  5
C56
 10
37.8677
 20
75.5521
 30
0.000000
  70
    32
  0
VERTEX
  8
0
  5
C57
 10
37.8648
 20
75.5454
 30
0.000000
  70
    32
  0
VERTEX
  8
0
  5
C58
 10
37.8619
 20
75.5387
 30
0.000000
  70
    32
  0
VERTEX
  8
0
  5
C59
 10
37.8592
 20
75.5319
 30
0.000000
  70
    32
  0
VERTEX
  8
0
  5
C5A
 10
37.8565
 20
75.5251
 30
0.000000
  70
    32
  0
VERTEX
  8
0
  5
C5B
 10
37.8539
 20
75.5182
 30
0.000000
  70
    32
  0
VERTEX
  8
0
  5
C5C
 10
37.8514
 20
75.5113
 30
0.000000
  70
    32
  0
VERTEX
  8
0
  5
C5D
 10
37.8490
 20
75.5043
 30
0.000000
  70
    32
  0
VERTEX
  8
0
  5
C5E
 10
37.8466
 20
75.4973
 30
0.000000
  70
    32
  0
VERTEX
  8
0
  5
C5F
 10
37.8444
 20
75.4903
 30
0.000000
  70
    32
  0
VERTEX
  8
0
  5
C60
 10
37.8422
 20
75.4832
 30
0.000000
  70
    32
  0
VERTEX
  8
0
  5
C61
 10
37.8402
 20
75.4761
 30
0.000000
  70
    32
  0
VERTEX
  8
0
  5
C62
 10
37.8382
 20
75.4690
 30
0.000000
  70
    32
  0
VERTEX
  8
0
  5
C63
 10
37.8363
 20
75.4618
 30
0.000000
  70
    32
  0
VERTEX
  8
0
  5
C64
 10
37.8345
 20
75.4546
 30
0.000000
  70
    32
  0
VERTEX
  8
0
  5
C65
 10
37.8329
 20
75.4473
 30
0.000000
  70
    32
  0
VERTEX
  8
0
  5
C66
 10
37.8313
 20
75.4400
 30
0.000000
  70
    32
  0
VERTEX
  8
0
  5
C67
 10
37.8297
 20
75.4327
 30
0.000000
  70
    32
  0
VERTEX
  8
0
  5
C68
 10
37.8283
 20
75.4253
 30
0.000000
  70
    32
  0
VERTEX
  8
0
  5
C69
 10
37.8270
 20
75.4179
 30
0.000000
  70
    32
  0
VERTEX
  8
0
  5
C6A
 10
37.8258
 20
75.4105
 30
0.000000
  70
    32
  0
VERTEX
  8
0
  5
C6B
 10
37.8247
 20
75.4031
 30
0.000000
  70
    32
  0
VERTEX
  8
0
  5
C6C
 10
37.8237
 20
75.3956
 30
0.000000
  70
    32
  0
VERTEX
  8
0
  5
C6D
 10
37.8227
 20
75.3880
 30
0.000000
  70
    32
  0
SEQEND
  8
0
  5
C6E
  0
POLYLINE
  8
0
  5
C6F
  62
1
  66
     1
 10
0.000000
 20
0.000000
 30
0.000000
  70
     8
  0
VERTEX
  8
0
  5
C70
 10
39.5666
 20
79.4833
 30
0.000000
  70
    32
  0
VERTEX
  8
0
  5
C71
 10
39.5637
 20
79.4804
 30
0.000000
  70
    32
  0
VERTEX
  8
0
  5
C72
 10
39.5607
 20
79.4775
 30
0.000000
  70
    32
  0
VERTEX
  8
0
  5
C73
 10
39.5579
 20
79.4746
 30
0.000000
  70
    32
  0
VERTEX
  8
0
  5
C74
 10
39.5550
 20
79.4716
 30
0.000000
  70
    32
  0
VERTEX
  8
0
  5
C75
 10
39.5522
 20
79.4686
 30
0.000000
  70
    32
  0
VERTEX
  8
0
  5
C76
 10
39.5493
 20
79.4656
 30
0.000000
  70
    32
  0
VERTEX
  8
0
  5
C77
 10
39.5465
 20
79.4626
 30
0.000000
  70
    32
  0
VERTEX
  8
0
  5
C78
 10
39.5438
 20
79.4596
 30
0.000000
  70
    32
  0
VERTEX
  8
0
  5
C79
 10
39.5410
 20
79.4565
 30
0.000000
  70
    32
  0
VERTEX
  8
0
  5
C7A
 10
39.5383
 20
79.4534
 30
0.000000
  70
    32
  0
VERTEX
  8
0
  5
C7B
 10
39.5356
 20
79.4503
 30
0.000000
  70
    32
  0
VERTEX
  8
0
  5
C7C
 10
39.5329
 20
79.4472
 30
0.000000
  70
    32
  0
VERTEX
  8
0
  5
C7D
 10
39.5302
 20
79.4441
 30
0.000000
  70
    32
  0
VERTEX
  8
0
  5
C7E
 10
39.5276
 20
79.4409
 30
0.000000
  70
    32
  0
VERTEX
  8
0
  5
C7F
 10
39.5250
 20
79.4377
 30
0.000000
  70
    32
  0
VERTEX
  8
0
  5
C80
 10
39.5224
 20
79.4345
 30
0.000000
  70
    32
  0
VERTEX
  8
0
  5
C81
 10
39.5198
 20
79.4313
 30
0.000000
  70
    32
  0
VERTEX
  8
0
  5
C82
 10
39.5173
 20
79.4281
 30
0.000000
  70
    32
  0
VERTEX
  8
0
  5
C83
 10
39.5147
 20
79.4248
 30
0.000000
  70
    32
  0
VERTEX
  8
0
  5
C84
 10
39.5122
 20
79.4215
 30
0.000000
  70
    32
  0
VERTEX
  8
0
  5
C85
 10
39.5097
 20
79.4182
 30
0.000000
  70
    32
  0
VERTEX
  8
0
  5
C86
 10
39.5073
 20
79.4149
 30
0.000000
  70
    32
  0
VERTEX
  8
0
  5
C87
 10
39.5049
 20
79.4116
 30
0.000000
  70
    32
  0
VERTEX
  8
0
  5
C88
 10
39.5024
 20
79.4082
 30
0.000000
  70
    32
  0
VERTEX
  8
0
  5
C89
 10
39.5001
 20
79.4049
 30
0.000000
  70
    32
  0
VERTEX
  8
0
  5
C8A
 10
39.4977
 20
79.4015
 30
0.000000
  70
    32
  0
VERTEX
  8
0
  5
C8B
 10
39.4954
 20
79.3981
 30
0.000000
  70
    32
  0
VERTEX
  8
0
  5
C8C
 10
39.4930
 20
79.3947
 30
0.000000
  70
    32
  0
VERTEX
  8
0
  5
C8D
 10
39.4908
 20
79.3912
 30
0.000000
  70
    32
  0
VERTEX
  8
0
  5
C8E
 10
39.4885
 20
79.3878
 30
0.000000
  70
    32
  0
VERTEX
  8
0
  5
C8F
 10
39.4863
 20
79.3843
 30
0.000000
  70
    32
  0
VERTEX
  8
0
  5
C90
 10
39.4840
 20
79.3808
 30
0.000000
  70
    32
  0
VERTEX
  8
0
  5
C91
 10
39.4819
 20
79.3773
 30
0.000000
  70
    32
  0
VERTEX
  8
0
  5
C92
 10
39.4797
 20
79.3738
 30
0.000000
  70
    32
  0
VERTEX
  8
0
  5
C93
 10
39.4776
 20
79.3702
 30
0.000000
  70
    32
  0
VERTEX
  8
0
  5
C94
 10
39.4754
 20
79.3667
 30
0.000000
  70
    32
  0
VERTEX
  8
0
  5
C95
 10
39.4734
 20
79.3631
 30
0.000000
  70
    32
  0
VERTEX
  8
0
  5
C96
 10
39.4713
 20
79.3595
 30
0.000000
  70
    32
  0
VERTEX
  8
0
  5
C97
 10
39.4693
 20
79.3559
 30
0.000000
  70
    32
  0
VERTEX
  8
0
  5
C98
 10
39.4672
 20
79.3522
 30
0.000000
  70
    32
  0
VERTEX
  8
0
  5
C99
 10
39.4653
 20
79.3486
 30
0.000000
  70
    32
  0
VERTEX
  8
0
  5
C9A
 10
39.4633
 20
79.3449
 30
0.000000
  70
    32
  0
VERTEX
  8
0
  5
C9B
 10
39.4614
 20
79.3413
 30
0.000000
  70
    32
  0
VERTEX
  8
0
  5
C9C
 10
39.4595
 20
79.3376
 30
0.000000
  70
    32
  0
VERTEX
  8
0
  5
C9D
 10
39.4576
 20
79.3339
 30
0.000000
  70
    32
  0
VERTEX
  8
0
  5
C9E
 10
39.4557
 20
79.3301
 30
0.000000
  70
    32
  0
VERTEX
  8
0
  5
C9F
 10
39.4539
 20
79.3264
 30
0.000000
  70
    32
  0
VERTEX
  8
0
  5
CA0
 10
39.4521
 20
79.3227
 30
0.000000
  70
    32
  0
VERTEX
  8
0
  5
CA1
 10
39.4503
 20
79.3189
 30
0.000000
  70
    32
  0
VERTEX
  8
0
  5
CA2
 10
39.4486
 20
79.3151
 30
0.000000
  70
    32
  0
VERTEX
  8
0
  5
CA3
 10
39.4469
 20
79.3113
 30
0.000000
  70
    32
  0
VERTEX
  8
0
  5
CA4
 10
39.4452
 20
79.3075
 30
0.000000
  70
    32
  0
VERTEX
  8
0
  5
CA5
 10
39.4435
 20
79.3037
 30
0.000000
  70
    32
  0
VERTEX
  8
0
  5
CA6
 10
39.4419
 20
79.2998
 30
0.000000
  70
    32
  0
VERTEX
  8
0
  5
CA7
 10
39.4403
 20
79.2960
 30
0.000000
  70
    32
  0
VERTEX
  8
0
  5
CA8
 10
39.4387
 20
79.2921
 30
0.000000
  70
    32
  0
VERTEX
  8
0
  5
CA9
 10
39.4371
 20
79.2882
 30
0.000000
  70
    32
  0
VERTEX
  8
0
  5
CAA
 10
39.4356
 20
79.2843
 30
0.000000
  70
    32
  0
VERTEX
  8
0
  5
CAB
 10
39.4341
 20
79.2804
 30
0.000000
  70
    32
  0
VERTEX
  8
0
  5
CAC
 10
39.4327
 20
79.2765
 30
0.000000
  70
    32
  0
VERTEX
  8
0
  5
CAD
 10
39.4312
 20
79.2725
 30
0.000000
  70
    32
  0
VERTEX
  8
0
  5
CAE
 10
39.4298
 20
79.2686
 30
0.000000
  70
    32
  0
VERTEX
  8
0
  5
CAF
 10
39.4284
 20
79.2646
 30
0.000000
  70
    32
  0
VERTEX
  8
0
  5
CB0
 10
39.4271
 20
79.2606
 30
0.000000
  70
    32
  0
VERTEX
  8
0
  5
CB1
 10
39.4258
 20
79.2566
 30
0.000000
  70
    32
  0
VERTEX
  8
0
  5
CB2
 10
39.4245
 20
79.2526
 30
0.000000
  70
    32
  0
VERTEX
  8
0
  5
CB3
 10
39.4232
 20
79.2486
 30
0.000000
  70
    32
  0
VERTEX
  8
0
  5
CB4
 10
39.4220
 20
79.2446
 30
0.000000
  70
    32
  0
VERTEX
  8
0
  5
CB5
 10
39.4208
 20
79.2405
 30
0.000000
  70
    32
  0
VERTEX
  8
0
  5
CB6
 10
39.4196
 20
79.2365
 30
0.000000
  70
    32
  0
VERTEX
  8
0
  5
CB7
 10
39.4184
 20
79.2324
 30
0.000000
  70
    32
  0
VERTEX
  8
0
  5
CB8
 10
39.4173
 20
79.2283
 30
0.000000
  70
    32
  0
VERTEX
  8
0
  5
CB9
 10
39.4162
 20
79.2242
 30
0.000000
  70
    32
  0
VERTEX
  8
0
  5
CBA
 10
39.4152
 20
79.2201
 30
0.000000
  70
    32
  0
VERTEX
  8
0
  5
CBB
 10
39.4141
 20
79.2160
 30
0.000000
  70
    32
  0
VERTEX
  8
0
  5
CBC
 10
39.4131
 20
79.2118
 30
0.000000
  70
    32
  0
VERTEX
  8
0
  5
CBD
 10
39.4122
 20
79.2077
 30
0.000000
  70
    32
  0
VERTEX
  8
0
  5
CBE
 10
39.4112
 20
79.2035
 30
0.000000
  70
    32
  0
VERTEX
  8
0
  5
CBF
 10
39.4103
 20
79.1994
 30
0.000000
  70
    32
  0
VERTEX
  8
0
  5
CC0
 10
39.4095
 20
79.1952
 30
0.000000
  70
    32
  0
VERTEX
  8
0
  5
CC1
 10
39.4086
 20
79.1910
 30
0.000000
  70
    32
  0
VERTEX
  8
0
  5
CC2
 10
39.4078
 20
79.1868
 30
0.000000
  70
    32
  0
VERTEX
  8
0
  5
CC3
 10
39.4070
 20
79.1826
 30
0.000000
  70
    32
  0
VERTEX
  8
0
  5
CC4
 10
39.4063
 20
79.1784
 30
0.000000
  70
    32
  0
VERTEX
  8
0
  5
CC5
 10
39.4056
 20
79.1741
 30
0.000000
  70
    32
  0
VERTEX
  8
0
  5
CC6
 10
39.4049
 20
79.1699
 30
0.000000
  70
    32
  0
VERTEX
  8
0
  5
CC7
 10
39.4042
 20
79.1656
 30
0.000000
  70
    32
  0
VERTEX
  8
0
  5
CC8
 10
39.4036
 20
79.1614
 30
0.000000
  70
    32
  0
VERTEX
  8
0
  5
CC9
 10
39.4030
 20
79.1571
 30
0.000000
  70
    32
  0
VERTEX
  8
0
  5
CCA
 10
39.4024
 20
79.1528
 30
0.000000
  70
    32
  0
VERTEX
  8
0
  5
CCB
 10
39.4019
 20
79.1485
 30
0.000000
  70
    32
  0
VERTEX
  8
0
  5
CCC
 10
39.4014
 20
79.1442
 30
0.000000
  70
    32
  0
VERTEX
  8
0
  5
CCD
 10
39.4010
 20
79.1399
 30
0.000000
  70
    32
  0
VERTEX
  8
0
  5
CCE
 10
39.4005
 20
79.1356
 30
0.000000
  70
    32
  0
VERTEX
  8
0
  5
CCF
 10
39.4001
 20
79.1313
 30
0.000000
  70
    32
  0
VERTEX
  8
0
  5
CD0
 10
39.3998
 20
79.1269
 30
0.000000
  70
    32
  0
VERTEX
  8
0
  5
CD1
 10
39.3994
 20
79.1226
 30
0.000000
  70
    32
  0
VERTEX
  8
0
  5
CD2
 10
39.3991
 20
79.1182
 30
0.000000
  70
    32
  0
VERTEX
  8
0
  5
CD3
 10
39.3989
 20
79.1138
 30
0.000000
  70
    32
  0
VERTEX
  8
0
  5
CD4
 10
39.3986
 20
79.1095
 30
0.000000
  70
    32
  0
VERTEX
  8
0
  5
CD5
 10
39.3984
 20
79.1051
 30
0.000000
  70
    32
  0
VERTEX
  8
0
  5
CD6
 10
39.3983
 20
79.1007
 30
0.000000
  70
    32
  0
VERTEX
  8
0
  5
CD7
 10
39.3982
 20
79.0963
 30
0.000000
  70
    32
  0
VERTEX
  8
0
  5
CD8
 10
39.3981
 20
79.0919
 30
0.000000
  70
    32
  0
VERTEX
  8
0
  5
CD9
 10
39.3980
 20
79.0874
 30
0.000000
  70
    32
  0
VERTEX
  8
0
  5
CDA
 10
39.3980
 20
79.0830
 30
0.000000
  70
    32
  0
VERTEX
  8
0
  5
CDB
 10
39.3980
 20
79.0757
 30
0.000000
  70
    32
  0
VERTEX
  8
0
  5
CDC
 10
39.3981
 20
79.0669
 30
0.000000
  70
    32
  0
VERTEX
  8
0
  5
CDD
 10
39.3984
 20
79.0582
 30
0.000000
  70
    32
  0
VERTEX
  8
0
  5
CDE
 10
39.3989
 20
79.0496
 30
0.000000
  70
    32
  0
VERTEX
  8
0
  5
CDF
 10
39.3994
 20
79.0409
 30
0.000000
  70
    32
  0
VERTEX
  8
0
  5
CE0
 10
39.4001
 20
79.0323
 30
0.000000
  70
    32
  0
VERTEX
  8
0
  5
CE1
 10
39.4009
 20
79.0237
 30
0.000000
  70
    32
  0
VERTEX
  8
0
  5
CE2
 10
39.4018
 20
79.0152
 30
0.000000
  70
    32
  0
VERTEX
  8
0
  5
CE3
 10
39.4029
 20
79.0067
 30
0.000000
  70
    32
  0
VERTEX
  8
0
  5
CE4
 10
39.4041
 20
78.9983
 30
0.000000
  70
    32
  0
VERTEX
  8
0
  5
CE5
 10
39.4054
 20
78.9899
 30
0.000000
  70
    32
  0
VERTEX
  8
0
  5
CE6
 10
39.4068
 20
78.9815
 30
0.000000
  70
    32
  0
VERTEX
  8
0
  5
CE7
 10
39.4084
 20
78.9732
 30
0.000000
  70
    32
  0
VERTEX
  8
0
  5
CE8
 10
39.4101
 20
78.9649
 30
0.000000
  70
    32
  0
VERTEX
  8
0
  5
CE9
 10
39.4119
 20
78.9566
 30
0.000000
  70
    32
  0
VERTEX
  8
0
  5
CEA
 10
39.4138
 20
78.9484
 30
0.000000
  70
    32
  0
VERTEX
  8
0
  5
CEB
 10
39.4158
 20
78.9403
 30
0.000000
  70
    32
  0
VERTEX
  8
0
  5
CEC
 10
39.4180
 20
78.9322
 30
0.000000
  70
    32
  0
VERTEX
  8
0
  5
CED
 10
39.4202
 20
78.9241
 30
0.000000
  70
    32
  0
VERTEX
  8
0
  5
CEE
 10
39.4226
 20
78.9161
 30
0.000000
  70
    32
  0
VERTEX
  8
0
  5
CEF
 10
39.4251
 20
78.9082
 30
0.000000
  70
    32
  0
VERTEX
  8
0
  5
CF0
 10
39.4277
 20
78.9003
 30
0.000000
  70
    32
  0
VERTEX
  8
0
  5
CF1
 10
39.4305
 20
78.8924
 30
0.000000
  70
    32
  0
VERTEX
  8
0
  5
CF2
 10
39.4333
 20
78.8846
 30
0.000000
  70
    32
  0
VERTEX
  8
0
  5
CF3
 10
39.4363
 20
78.8769
 30
0.000000
  70
    32
  0
VERTEX
  8
0
  5
CF4
 10
39.4393
 20
78.8692
 30
0.000000
  70
    32
  0
VERTEX
  8
0
  5
CF5
 10
39.4425
 20
78.8616
 30
0.000000
  70
    32
  0
VERTEX
  8
0
  5
CF6
 10
39.4458
 20
78.8540
 30
0.000000
  70
    32
  0
VERTEX
  8
0
  5
CF7
 10
39.4492
 20
78.8465
 30
0.000000
  70
    32
  0
VERTEX
  8
0
  5
CF8
 10
39.4527
 20
78.8390
 30
0.000000
  70
    32
  0
VERTEX
  8
0
  5
CF9
 10
39.4563
 20
78.8316
 30
0.000000
  70
    32
  0
VERTEX
  8
0
  5
CFA
 10
39.4600
 20
78.8243
 30
0.000000
  70
    32
  0
VERTEX
  8
0
  5
CFB
 10
39.4638
 20
78.8170
 30
0.000000
  70
    32
  0
VERTEX
  8
0
  5
CFC
 10
39.4677
 20
78.8098
 30
0.000000
  70
    32
  0
VERTEX
  8
0
  5
CFD
 10
39.4717
 20
78.8027
 30
0.000000
  70
    32
  0
VERTEX
  8
0
  5
CFE
 10
39.4758
 20
78.7956
 30
0.000000
  70
    32
  0
VERTEX
  8
0
  5
CFF
 10
39.4800
 20
78.7886
 30
0.000000
  70
    32
  0
VERTEX
  8
0
  5
D00
 10
39.4843
 20
78.7816
 30
0.000000
  70
    32
  0
VERTEX
  8
0
  5
D01
 10
39.4887
 20
78.7747
 30
0.000000
  70
    32
  0
VERTEX
  8
0
  5
D02
 10
39.4932
 20
78.7679
 30
0.000000
  70
    32
  0
VERTEX
  8
0
  5
D03
 10
39.4978
 20
78.7612
 30
0.000000
  70
    32
  0
VERTEX
  8
0
  5
D04
 10
39.5025
 20
78.7545
 30
0.000000
  70
    32
  0
VERTEX
  8
0
  5
D05
 10
39.5073
 20
78.7479
 30
0.000000
  70
    32
  0
VERTEX
  8
0
  5
D06
 10
39.5122
 20
78.7414
 30
0.000000
  70
    32
  0
VERTEX
  8
0
  5
D07
 10
39.5172
 20
78.7349
 30
0.000000
  70
    32
  0
VERTEX
  8
0
  5
D08
 10
39.5222
 20
78.7285
 30
0.000000
  70
    32
  0
VERTEX
  8
0
  5
D09
 10
39.5274
 20
78.7222
 30
0.000000
  70
    32
  0
VERTEX
  8
0
  5
D0A
 10
39.5326
 20
78.7160
 30
0.000000
  70
    32
  0
VERTEX
  8
0
  5
D0B
 10
39.5379
 20
78.7098
 30
0.000000
  70
    32
  0
VERTEX
  8
0
  5
D0C
 10
39.5434
 20
78.7038
 30
0.000000
  70
    32
  0
VERTEX
  8
0
  5
D0D
 10
39.5489
 20
78.6978
 30
0.000000
  70
    32
  0
VERTEX
  8
0
  5
D0E
 10
39.5544
 20
78.6919
 30
0.000000
  70
    32
  0
VERTEX
  8
0
  5
D0F
 10
39.5601
 20
78.6860
 30
0.000000
  70
    32
  0
VERTEX
  8
0
  5
D10
 10
39.5659
 20
78.6803
 30
0.000000
  70
    32
  0
VERTEX
  8
0
  5
D11
 10
39.5717
 20
78.6746
 30
0.000000
  70
    32
  0
VERTEX
  8
0
  5
D12
 10
39.5776
 20
78.6690
 30
0.000000
  70
    32
  0
VERTEX
  8
0
  5
D13
 10
39.5836
 20
78.6635
 30
0.000000
  70
    32
  0
VERTEX
  8
0
  5
D14
 10
39.5897
 20
78.6581
 30
0.000000
  70
    32
  0
VERTEX
  8
0
  5
D15
 10
39.5958
 20
78.6528
 30
0.000000
  70
    32
  0
VERTEX
  8
0
  5
D16
 10
39.6021
 20
78.6475
 30
0.000000
  70
    32
  0
VERTEX
  8
0
  5
D17
 10
39.6084
 20
78.6424
 30
0.000000
  70
    32
  0
VERTEX
  8
0
  5
D18
 10
39.6148
 20
78.6373
 30
0.000000
  70
    32
  0
VERTEX
  8
0
  5
D19
 10
39.6212
 20
78.6324
 30
0.000000
  70
    32
  0
VERTEX
  8
0
  5
D1A
 10
39.6278
 20
78.6275
 30
0.000000
  70
    32
  0
VERTEX
  8
0
  5
D1B
 10
39.6344
 20
78.6227
 30
0.000000
  70
    32
  0
VERTEX
  8
0
  5
D1C
 10
39.6410
 20
78.6180
 30
0.000000
  70
    32
  0
VERTEX
  8
0
  5
D1D
 10
39.6478
 20
78.6134
 30
0.000000
  70
    32
  0
VERTEX
  8
0
  5
D1E
 10
39.6546
 20
78.6089
 30
0.000000
  70
    32
  0
VERTEX
  8
0
  5
D1F
 10
39.6615
 20
78.6045
 30
0.000000
  70
    32
  0
VERTEX
  8
0
  5
D20
 10
39.6684
 20
78.6002
 30
0.000000
  70
    32
  0
VERTEX
  8
0
  5
D21
 10
39.6754
 20
78.5960
 30
0.000000
  70
    32
  0
VERTEX
  8
0
  5
D22
 10
39.6825
 20
78.5919
 30
0.000000
  70
    32
  0
VERTEX
  8
0
  5
D23
 10
39.6897
 20
78.5879
 30
0.000000
  70
    32
  0
VERTEX
  8
0
  5
D24
 10
39.6969
 20
78.5840
 30
0.000000
  70
    32
  0
VERTEX
  8
0
  5
D25
 10
39.7041
 20
78.5801
 30
0.000000
  70
    32
  0
VERTEX
  8
0
  5
D26
 10
39.7115
 20
78.5764
 30
0.000000
  70
    32
  0
VERTEX
  8
0
  5
D27
 10
39.7189
 20
78.5728
 30
0.000000
  70
    32
  0
VERTEX
  8
0
  5
D28
 10
39.7263
 20
78.5694
 30
0.000000
  70
    32
  0
VERTEX
  8
0
  5
D29
 10
39.7339
 20
78.5660
 30
0.000000
  70
    32
  0
VERTEX
  8
0
  5
D2A
 10
39.7414
 20
78.5627
 30
0.000000
  70
    32
  0
VERTEX
  8
0
  5
D2B
 10
39.7491
 20
78.5595
 30
0.000000
  70
    32
  0
VERTEX
  8
0
  5
D2C
 10
39.7567
 20
78.5565
 30
0.000000
  70
    32
  0
VERTEX
  8
0
  5
D2D
 10
39.7645
 20
78.5535
 30
0.000000
  70
    32
  0
VERTEX
  8
0
  5
D2E
 10
39.7723
 20
78.5507
 30
0.000000
  70
    32
  0
VERTEX
  8
0
  5
D2F
 10
39.7801
 20
78.5479
 30
0.000000
  70
    32
  0
VERTEX
  8
0
  5
D30
 10
39.7880
 20
78.5453
 30
0.000000
  70
    32
  0
VERTEX
  8
0
  5
D31
 10
39.7960
 20
78.5428
 30
0.000000
  70
    32
  0
VERTEX
  8
0
  5
D32
 10
39.8040
 20
78.5404
 30
0.000000
  70
    32
  0
VERTEX
  8
0
  5
D33
 10
39.8120
 20
78.5382
 30
0.000000
  70
    32
  0
VERTEX
  8
0
  5
D34
 10
39.8201
 20
78.5360
 30
0.000000
  70
    32
  0
VERTEX
  8
0
  5
D35
 10
39.8283
 20
78.5340
 30
0.000000
  70
    32
  0
VERTEX
  8
0
  5
D36
 10
39.8365
 20
78.5320
 30
0.000000
  70
    32
  0
VERTEX
  8
0
  5
D37
 10
39.8447
 20
78.5302
 30
0.000000
  70
    32
  0
VERTEX
  8
0
  5
D38
 10
39.8530
 20
78.5286
 30
0.000000
  70
    32
  0
VERTEX
  8
0
  5
D39
 10
39.8613
 20
78.5270
 30
0.000000
  70
    32
  0
VERTEX
  8
0
  5
D3A
 10
39.8697
 20
78.5256
 30
0.000000
  70
    32
  0
VERTEX
  8
0
  5
D3B
 10
39.8781
 20
78.5243
 30
0.000000
  70
    32
  0
VERTEX
  8
0
  5
D3C
 10
39.8865
 20
78.5231
 30
0.000000
  70
    32
  0
VERTEX
  8
0
  5
D3D
 10
39.8950
 20
78.5220
 30
0.000000
  70
    32
  0
VERTEX
  8
0
  5
D3E
 10
39.9036
 20
78.5211
 30
0.000000
  70
    32
  0
VERTEX
  8
0
  5
D3F
 10
39.9121
 20
78.5203
 30
0.000000
  70
    32
  0
VERTEX
  8
0
  5
D40
 10
39.9207
 20
78.5196
 30
0.000000
  70
    32
  0
VERTEX
  8
0
  5
D41
 10
39.9294
 20
78.5190
 30
0.000000
  70
    32
  0
VERTEX
  8
0
  5
D42
 10
39.9380
 20
78.5186
 30
0.000000
  70
    32
  0
VERTEX
  8
0
  5
D43
 10
39.9467
 20
78.5183
 30
0.000000
  70
    32
  0
VERTEX
  8
0
  5
D44
 10
39.9555
 20
78.5182
 30
0.000000
  70
    32
  0
VERTEX
  8
0
  5
D45
 10
39.9626
 20
78.5182
 30
0.000000
  70
    32
  0
VERTEX
  8
0
  5
D46
 10
39.9664
 20
78.5182
 30
0.000000
  70
    32
  0
VERTEX
  8
0
  5
D47
 10
39.9702
 20
78.5182
 30
0.000000
  70
    32
  0
VERTEX
  8
0
  5
D48
 10
39.9741
 20
78.5183
 30
0.000000
  70
    32
  0
VERTEX
  8
0
  5
D49
 10
39.9779
 20
78.5184
 30
0.000000
  70
    32
  0
VERTEX
  8
0
  5
D4A
 10
39.9817
 20
78.5185
 30
0.000000
  70
    32
  0
VERTEX
  8
0
  5
D4B
 10
39.9854
 20
78.5187
 30
0.000000
  70
    32
  0
VERTEX
  8
0
  5
D4C
 10
39.9892
 20
78.5188
 30
0.000000
  70
    32
  0
VERTEX
  8
0
  5
D4D
 10
39.9930
 20
78.5190
 30
0.000000
  70
    32
  0
VERTEX
  8
0
  5
D4E
 10
39.9968
 20
78.5193
 30
0.000000
  70
    32
  0
VERTEX
  8
0
  5
D4F
 10
40.0005
 20
78.5195
 30
0.000000
  70
    32
  0
VERTEX
  8
0
  5
D50
 10
40.0043
 20
78.5198
 30
0.000000
  70
    32
  0
VERTEX
  8
0
  5
D51
 10
40.0081
 20
78.5201
 30
0.000000
  70
    32
  0
VERTEX
  8
0
  5
D52
 10
40.0118
 20
78.5204
 30
0.000000
  70
    32
  0
VERTEX
  8
0
  5
D53
 10
40.0155
 20
78.5207
 30
0.000000
  70
    32
  0
VERTEX
  8
0
  5
D54
 10
40.0193
 20
78.5211
 30
0.000000
  70
    32
  0
VERTEX
  8
0
  5
D55
 10
40.0230
 20
78.5215
 30
0.000000
  70
    32
  0
VERTEX
  8
0
  5
D56
 10
40.0267
 20
78.5219
 30
0.000000
  70
    32
  0
VERTEX
  8
0
  5
D57
 10
40.0304
 20
78.5224
 30
0.000000
  70
    32
  0
VERTEX
  8
0
  5
D58
 10
40.0341
 20
78.5228
 30
0.000000
  70
    32
  0
VERTEX
  8
0
  5
D59
 10
40.0378
 20
78.5233
 30
0.000000
  70
    32
  0
VERTEX
  8
0
  5
D5A
 10
40.0415
 20
78.5238
 30
0.000000
  70
    32
  0
VERTEX
  8
0
  5
D5B
 10
40.0452
 20
78.5244
 30
0.000000
  70
    32
  0
VERTEX
  8
0
  5
D5C
 10
40.0489
 20
78.5249
 30
0.000000
  70
    32
  0
VERTEX
  8
0
  5
D5D
 10
40.0525
 20
78.5255
 30
0.000000
  70
    32
  0
VERTEX
  8
0
  5
D5E
 10
40.0562
 20
78.5261
 30
0.000000
  70
    32
  0
VERTEX
  8
0
  5
D5F
 10
40.0598
 20
78.5267
 30
0.000000
  70
    32
  0
VERTEX
  8
0
  5
D60
 10
40.0635
 20
78.5274
 30
0.000000
  70
    32
  0
VERTEX
  8
0
  5
D61
 10
40.0671
 20
78.5281
 30
0.000000
  70
    32
  0
VERTEX
  8
0
  5
D62
 10
40.0707
 20
78.5288
 30
0.000000
  70
    32
  0
VERTEX
  8
0
  5
D63
 10
40.0743
 20
78.5295
 30
0.000000
  70
    32
  0
VERTEX
  8
0
  5
D64
 10
40.0779
 20
78.5303
 30
0.000000
  70
    32
  0
VERTEX
  8
0
  5
D65
 10
40.0815
 20
78.5310
 30
0.000000
  70
    32
  0
VERTEX
  8
0
  5
D66
 10
40.0851
 20
78.5318
 30
0.000000
  70
    32
  0
VERTEX
  8
0
  5
D67
 10
40.0887
 20
78.5326
 30
0.000000
  70
    32
  0
VERTEX
  8
0
  5
D68
 10
40.0923
 20
78.5335
 30
0.000000
  70
    32
  0
VERTEX
  8
0
  5
D69
 10
40.0958
 20
78.5343
 30
0.000000
  70
    32
  0
VERTEX
  8
0
  5
D6A
 10
40.0994
 20
78.5352
 30
0.000000
  70
    32
  0
VERTEX
  8
0
  5
D6B
 10
40.1029
 20
78.5361
 30
0.000000
  70
    32
  0
VERTEX
  8
0
  5
D6C
 10
40.1065
 20
78.5371
 30
0.000000
  70
    32
  0
VERTEX
  8
0
  5
D6D
 10
40.1100
 20
78.5380
 30
0.000000
  70
    32
  0
VERTEX
  8
0
  5
D6E
 10
40.1135
 20
78.5390
 30
0.000000
  70
    32
  0
VERTEX
  8
0
  5
D6F
 10
40.1170
 20
78.5400
 30
0.000000
  70
    32
  0
VERTEX
  8
0
  5
D70
 10
40.1205
 20
78.5410
 30
0.000000
  70
    32
  0
VERTEX
  8
0
  5
D71
 10
40.1240
 20
78.5420
 30
0.000000
  70
    32
  0
VERTEX
  8
0
  5
D72
 10
40.1275
 20
78.5431
 30
0.000000
  70
    32
  0
VERTEX
  8
0
  5
D73
 10
40.1310
 20
78.5442
 30
0.000000
  70
    32
  0
VERTEX
  8
0
  5
D74
 10
40.1344
 20
78.5453
 30
0.000000
  70
    32
  0
VERTEX
  8
0
  5
D75
 10
40.1379
 20
78.5464
 30
0.000000
  70
    32
  0
VERTEX
  8
0
  5
D76
 10
40.1413
 20
78.5476
 30
0.000000
  70
    32
  0
VERTEX
  8
0
  5
D77
 10
40.1448
 20
78.5487
 30
0.000000
  70
    32
  0
VERTEX
  8
0
  5
D78
 10
40.1482
 20
78.5499
 30
0.000000
  70
    32
  0
VERTEX
  8
0
  5
D79
 10
40.1516
 20
78.5511
 30
0.000000
  70
    32
  0
VERTEX
  8
0
  5
D7A
 10
40.1550
 20
78.5524
 30
0.000000
  70
    32
  0
VERTEX
  8
0
  5
D7B
 10
40.1584
 20
78.5536
 30
0.000000
  70
    32
  0
VERTEX
  8
0
  5
D7C
 10
40.1618
 20
78.5549
 30
0.000000
  70
    32
  0
VERTEX
  8
0
  5
D7D
 10
40.1651
 20
78.5562
 30
0.000000
  70
    32
  0
VERTEX
  8
0
  5
D7E
 10
40.1685
 20
78.5575
 30
0.000000
  70
    32
  0
VERTEX
  8
0
  5
D7F
 10
40.1719
 20
78.5588
 30
0.000000
  70
    32
  0
VERTEX
  8
0
  5
D80
 10
40.1752
 20
78.5602
 30
0.000000
  70
    32
  0
VERTEX
  8
0
  5
D81
 10
40.1785
 20
78.5616
 30
0.000000
  70
    32
  0
VERTEX
  8
0
  5
D82
 10
40.1818
 20
78.5630
 30
0.000000
  70
    32
  0
VERTEX
  8
0
  5
D83
 10
40.1852
 20
78.5644
 30
0.000000
  70
    32
  0
VERTEX
  8
0
  5
D84
 10
40.1884
 20
78.5659
 30
0.000000
  70
    32
  0
VERTEX
  8
0
  5
D85
 10
40.1917
 20
78.5673
 30
0.000000
  70
    32
  0
VERTEX
  8
0
  5
D86
 10
40.1950
 20
78.5688
 30
0.000000
  70
    32
  0
VERTEX
  8
0
  5
D87
 10
40.1983
 20
78.5703
 30
0.000000
  70
    32
  0
VERTEX
  8
0
  5
D88
 10
40.2015
 20
78.5718
 30
0.000000
  70
    32
  0
VERTEX
  8
0
  5
D89
 10
40.2048
 20
78.5734
 30
0.000000
  70
    32
  0
VERTEX
  8
0
  5
D8A
 10
40.2080
 20
78.5749
 30
0.000000
  70
    32
  0
VERTEX
  8
0
  5
D8B
 10
40.2112
 20
78.5765
 30
0.000000
  70
    32
  0
VERTEX
  8
0
  5
D8C
 10
40.2144
 20
78.5781
 30
0.000000
  70
    32
  0
VERTEX
  8
0
  5
D8D
 10
40.2176
 20
78.5797
 30
0.000000
  70
    32
  0
VERTEX
  8
0
  5
D8E
 10
40.2208
 20
78.5814
 30
0.000000
  70
    32
  0
VERTEX
  8
0
  5
D8F
 10
40.2240
 20
78.5831
 30
0.000000
  70
    32
  0
VERTEX
  8
0
  5
D90
 10
40.2271
 20
78.5847
 30
0.000000
  70
    32
  0
VERTEX
  8
0
  5
D91
 10
40.2303
 20
78.5864
 30
0.000000
  70
    32
  0
VERTEX
  8
0
  5
D92
 10
40.2334
 20
78.5882
 30
0.000000
  70
    32
  0
VERTEX
  8
0
  5
D93
 10
40.2365
 20
78.5899
 30
0.000000
  70
    32
  0
VERTEX
  8
0
  5
D94
 10
40.2396
 20
78.5917
 30
0.000000
  70
    32
  0
VERTEX
  8
0
  5
D95
 10
40.2427
 20
78.5934
 30
0.000000
  70
    32
  0
VERTEX
  8
0
  5
D96
 10
40.2458
 20
78.5952
 30
0.000000
  70
    32
  0
VERTEX
  8
0
  5
D97
 10
40.2489
 20
78.5970
 30
0.000000
  70
    32
  0
VERTEX
  8
0
  5
D98
 10
40.2519
 20
78.5989
 30
0.000000
  70
    32
  0
VERTEX
  8
0
  5
D99
 10
40.2550
 20
78.6007
 30
0.000000
  70
    32
  0
VERTEX
  8
0
  5
D9A
 10
40.2580
 20
78.6026
 30
0.000000
  70
    32
  0
VERTEX
  8
0
  5
D9B
 10
40.2610
 20
78.6045
 30
0.000000
  70
    32
  0
VERTEX
  8
0
  5
D9C
 10
40.2641
 20
78.6064
 30
0.000000
  70
    32
  0
VERTEX
  8
0
  5
D9D
 10
40.2670
 20
78.6083
 30
0.000000
  70
    32
  0
VERTEX
  8
0
  5
D9E
 10
40.2700
 20
78.6103
 30
0.000000
  70
    32
  0
VERTEX
  8
0
  5
D9F
 10
40.2730
 20
78.6122
 30
0.000000
  70
    32
  0
VERTEX
  8
0
  5
DA0
 10
40.2760
 20
78.6142
 30
0.000000
  70
    32
  0
VERTEX
  8
0
  5
DA1
 10
40.2789
 20
78.6162
 30
0.000000
  70
    32
  0
VERTEX
  8
0
  5
DA2
 10
40.2818
 20
78.6182
 30
0.000000
  70
    32
  0
VERTEX
  8
0
  5
DA3
 10
40.2847
 20
78.6203
 30
0.000000
  70
    32
  0
VERTEX
  8
0
  5
DA4
 10
40.2876
 20
78.6223
 30
0.000000
  70
    32
  0
VERTEX
  8
0
  5
DA5
 10
40.2905
 20
78.6244
 30
0.000000
  70
    32
  0
VERTEX
  8
0
  5
DA6
 10
40.2934
 20
78.6265
 30
0.000000
  70
    32
  0
VERTEX
  8
0
  5
DA7
 10
40.2963
 20
78.6286
 30
0.000000
  70
    32
  0
VERTEX
  8
0
  5
DA8
 10
40.2991
 20
78.6307
 30
0.000000
  70
    32
  0
VERTEX
  8
0
  5
DA9
 10
40.3019
 20
78.6329
 30
0.000000
  70
    32
  0
VERTEX
  8
0
  5
DAA
 10
40.3048
 20
78.6350
 30
0.000000
  70
    32
  0
VERTEX
  8
0
  5
DAB
 10
40.3076
 20
78.6372
 30
0.000000
  70
    32
  0
VERTEX
  8
0
  5
DAC
 10
40.3104
 20
78.6394
 30
0.000000
  70
    32
  0
VERTEX
  8
0
  5
DAD
 10
40.3131
 20
78.6416
 30
0.000000
  70
    32
  0
VERTEX
  8
0
  5
DAE
 10
40.3159
 20
78.6439
 30
0.000000
  70
    32
  0
VERTEX
  8
0
  5
DAF
 10
40.3186
 20
78.6461
 30
0.000000
  70
    32
  0
SEQEND
  8
0
  5
DB0
  0
CIRCLE
  5
50
  8
GAIKEI
 62
     1
 10
43.541497
 20
75.38858
 30
0.0
 40
0.678301
  0
POLYLINE
  8
0
  5
DB1
  62
1
  66
     1
 10
0.000000
 20
0.000000
 30
0.000000
  70
     8
  0
VERTEX
  8
0
  5
DB2
 10
48.1386
 20
75.4229
 30
0.000000
  70
    32
  0
VERTEX
  8
0
  5
DB3
 10
48.1391
 20
75.4150
 30
0.000000
  70
    32
  0
VERTEX
  8
0
  5
DB4
 10
48.1397
 20
75.4070
 30
0.000000
  70
    32
  0
VERTEX
  8
0
  5
DB5
 10
48.1404
 20
75.3991
 30
0.000000
  70
    32
  0
VERTEX
  8
0
  5
DB6
 10
48.1412
 20
75.3913
 30
0.000000
  70
    32
  0
VERTEX
  8
0
  5
DB7
 10
48.1421
 20
75.3834
 30
0.000000
  70
    32
  0
VERTEX
  8
0
  5
DB8
 10
48.1432
 20
75.3756
 30
0.000000
  70
    32
  0
VERTEX
  8
0
  5
DB9
 10
48.1443
 20
75.3679
 30
0.000000
  70
    32
  0
VERTEX
  8
0
  5
DBA
 10
48.1456
 20
75.3601
 30
0.000000
  70
    32
  0
VERTEX
  8
0
  5
DBB
 10
48.1469
 20
75.3524
 30
0.000000
  70
    32
  0
VERTEX
  8
0
  5
DBC
 10
48.1484
 20
75.3448
 30
0.000000
  70
    32
  0
VERTEX
  8
0
  5
DBD
 10
48.1499
 20
75.3372
 30
0.000000
  70
    32
  0
VERTEX
  8
0
  5
DBE
 10
48.1516
 20
75.3296
 30
0.000000
  70
    32
  0
VERTEX
  8
0
  5
DBF
 10
48.1534
 20
75.3220
 30
0.000000
  70
    32
  0
VERTEX
  8
0
  5
DC0
 10
48.1552
 20
75.3145
 30
0.000000
  70
    32
  0
VERTEX
  8
0
  5
DC1
 10
48.1572
 20
75.3070
 30
0.000000
  70
    32
  0
VERTEX
  8
0
  5
DC2
 10
48.1593
 20
75.2996
 30
0.000000
  70
    32
  0
VERTEX
  8
0
  5
DC3
 10
48.1614
 20
75.2922
 30
0.000000
  70
    32
  0
VERTEX
  8
0
  5
DC4
 10
48.1637
 20
75.2849
 30
0.000000
  70
    32
  0
VERTEX
  8
0
  5
DC5
 10
48.1660
 20
75.2776
 30
0.000000
  70
    32
  0
VERTEX
  8
0
  5
DC6
 10
48.1685
 20
75.2703
 30
0.000000
  70
    32
  0
VERTEX
  8
0
  5
DC7
 10
48.1711
 20
75.2631
 30
0.000000
  70
    32
  0
VERTEX
  8
0
  5
DC8
 10
48.1737
 20
75.2559
 30
0.000000
  70
    32
  0
VERTEX
  8
0
  5
DC9
 10
48.1764
 20
75.2488
 30
0.000000
  70
    32
  0
VERTEX
  8
0
  5
DCA
 10
48.1793
 20
75.2418
 30
0.000000
  70
    32
  0
VERTEX
  8
0
  5
DCB
 10
48.1822
 20
75.2347
 30
0.000000
  70
    32
  0
VERTEX
  8
0
  5
DCC
 10
48.1852
 20
75.2278
 30
0.000000
  70
    32
  0
VERTEX
  8
0
  5
DCD
 10
48.1883
 20
75.2208
 30
0.000000
  70
    32
  0
VERTEX
  8
0
  5
DCE
 10
48.1915
 20
75.2139
 30
0.000000
  70
    32
  0
VERTEX
  8
0
  5
DCF
 10
48.1948
 20
75.2071
 30
0.000000
  70
    32
  0
VERTEX
  8
0
  5
DD0
 10
48.1982
 20
75.2003
 30
0.000000
  70
    32
  0
VERTEX
  8
0
  5
DD1
 10
48.2016
 20
75.1936
 30
0.000000
  70
    32
  0
VERTEX
  8
0
  5
DD2
 10
48.2052
 20
75.1869
 30
0.000000
  70
    32
  0
VERTEX
  8
0
  5
DD3
 10
48.2088
 20
75.1803
 30
0.000000
  70
    32
  0
VERTEX
  8
0
  5
DD4
 10
48.2125
 20
75.1738
 30
0.000000
  70
    32
  0
VERTEX
  8
0
  5
DD5
 10
48.2163
 20
75.1672
 30
0.000000
  70
    32
  0
VERTEX
  8
0
  5
DD6
 10
48.2202
 20
75.1608
 30
0.000000
  70
    32
  0
VERTEX
  8
0
  5
DD7
 10
48.2242
 20
75.1544
 30
0.000000
  70
    32
  0
VERTEX
  8
0
  5
DD8
 10
48.2283
 20
75.1481
 30
0.000000
  70
    32
  0
VERTEX
  8
0
  5
DD9
 10
48.2324
 20
75.1418
 30
0.000000
  70
    32
  0
VERTEX
  8
0
  5
DDA
 10
48.2366
 20
75.1356
 30
0.000000
  70
    32
  0
VERTEX
  8
0
  5
DDB
 10
48.2409
 20
75.1294
 30
0.000000
  70
    32
  0
VERTEX
  8
0
  5
DDC
 10
48.2453
 20
75.1233
 30
0.000000
  70
    32
  0
VERTEX
  8
0
  5
DDD
 10
48.2498
 20
75.1173
 30
0.000000
  70
    32
  0
VERTEX
  8
0
  5
DDE
 10
48.2543
 20
75.1113
 30
0.000000
  70
    32
  0
VERTEX
  8
0
  5
DDF
 10
48.2589
 20
75.1054
 30
0.000000
  70
    32
  0
VERTEX
  8
0
  5
DE0
 10
48.2636
 20
75.0995
 30
0.000000
  70
    32
  0
VERTEX
  8
0
  5
DE1
 10
48.2684
 20
75.0937
 30
0.000000
  70
    32
  0
VERTEX
  8
0
  5
DE2
 10
48.2732
 20
75.0880
 30
0.000000
  70
    32
  0
VERTEX
  8
0
  5
DE3
 10
48.2781
 20
75.0823
 30
0.000000
  70
    32
  0
VERTEX
  8
0
  5
DE4
 10
48.2831
 20
75.0767
 30
0.000000
  70
    32
  0
VERTEX
  8
0
  5
DE5
 10
48.2882
 20
75.0712
 30
0.000000
  70
    32
  0
VERTEX
  8
0
  5
DE6
 10
48.2933
 20
75.0658
 30
0.000000
  70
    32
  0
VERTEX
  8
0
  5
DE7
 10
48.2985
 20
75.0604
 30
0.000000
  70
    32
  0
VERTEX
  8
0
  5
DE8
 10
48.3038
 20
75.0551
 30
0.000000
  70
    32
  0
VERTEX
  8
0
  5
DE9
 10
48.3092
 20
75.0498
 30
0.000000
  70
    32
  0
VERTEX
  8
0
  5
DEA
 10
48.3146
 20
75.0446
 30
0.000000
  70
    32
  0
VERTEX
  8
0
  5
DEB
 10
48.3201
 20
75.0395
 30
0.000000
  70
    32
  0
VERTEX
  8
0
  5
DEC
 10
48.3256
 20
75.0345
 30
0.000000
  70
    32
  0
VERTEX
  8
0
  5
DED
 10
48.3312
 20
75.0295
 30
0.000000
  70
    32
  0
VERTEX
  8
0
  5
DEE
 10
48.3369
 20
75.0246
 30
0.000000
  70
    32
  0
VERTEX
  8
0
  5
DEF
 10
48.3427
 20
75.0198
 30
0.000000
  70
    32
  0
VERTEX
  8
0
  5
DF0
 10
48.3485
 20
75.0151
 30
0.000000
  70
    32
  0
VERTEX
  8
0
  5
DF1
 10
48.3544
 20
75.0104
 30
0.000000
  70
    32
  0
VERTEX
  8
0
  5
DF2
 10
48.3603
 20
75.0059
 30
0.000000
  70
    32
  0
VERTEX
  8
0
  5
DF3
 10
48.3663
 20
75.0014
 30
0.000000
  70
    32
  0
VERTEX
  8
0
  5
DF4
 10
48.3724
 20
74.9969
 30
0.000000
  70
    32
  0
VERTEX
  8
0
  5
DF5
 10
48.3785
 20
74.9926
 30
0.000000
  70
    32
  0
VERTEX
  8
0
  5
DF6
 10
48.3847
 20
74.9883
 30
0.000000
  70
    32
  0
VERTEX
  8
0
  5
DF7
 10
48.3910
 20
74.9841
 30
0.000000
  70
    32
  0
VERTEX
  8
0
  5
DF8
 10
48.3973
 20
74.9800
 30
0.000000
  70
    32
  0
VERTEX
  8
0
  5
DF9
 10
48.4036
 20
74.9760
 30
0.000000
  70
    32
  0
VERTEX
  8
0
  5
DFA
 10
48.4100
 20
74.9721
 30
0.000000
  70
    32
  0
VERTEX
  8
0
  5
DFB
 10
48.4165
 20
74.9682
 30
0.000000
  70
    32
  0
VERTEX
  8
0
  5
DFC
 10
48.4231
 20
74.9644
 30
0.000000
  70
    32
  0
VERTEX
  8
0
  5
DFD
 10
48.4296
 20
74.9607
 30
0.000000
  70
    32
  0
VERTEX
  8
0
  5
DFE
 10
48.4363
 20
74.9571
 30
0.000000
  70
    32
  0
VERTEX
  8
0
  5
DFF
 10
48.4430
 20
74.9536
 30
0.000000
  70
    32
  0
VERTEX
  8
0
  5
E00
 10
48.4497
 20
74.9502
 30
0.000000
  70
    32
  0
VERTEX
  8
0
  5
E01
 10
48.4565
 20
74.9469
 30
0.000000
  70
    32
  0
VERTEX
  8
0
  5
E02
 10
48.4634
 20
74.9436
 30
0.000000
  70
    32
  0
VERTEX
  8
0
  5
E03
 10
48.4703
 20
74.9405
 30
0.000000
  70
    32
  0
VERTEX
  8
0
  5
E04
 10
48.4772
 20
74.9374
 30
0.000000
  70
    32
  0
VERTEX
  8
0
  5
E05
 10
48.4842
 20
74.9344
 30
0.000000
  70
    32
  0
VERTEX
  8
0
  5
E06
 10
48.4913
 20
74.9315
 30
0.000000
  70
    32
  0
VERTEX
  8
0
  5
E07
 10
48.4984
 20
74.9287
 30
0.000000
  70
    32
  0
VERTEX
  8
0
  5
E08
 10
48.5055
 20
74.9260
 30
0.000000
  70
    32
  0
VERTEX
  8
0
  5
E09
 10
48.5127
 20
74.9234
 30
0.000000
  70
    32
  0
VERTEX
  8
0
  5
E0A
 10
48.5199
 20
74.9209
 30
0.000000
  70
    32
  0
VERTEX
  8
0
  5
E0B
 10
48.5272
 20
74.9185
 30
0.000000
  70
    32
  0
VERTEX
  8
0
  5
E0C
 10
48.5345
 20
74.9162
 30
0.000000
  70
    32
  0
VERTEX
  8
0
  5
E0D
 10
48.5419
 20
74.9140
 30
0.000000
  70
    32
  0
VERTEX
  8
0
  5
E0E
 10
48.5493
 20
74.9119
 30
0.000000
  70
    32
  0
VERTEX
  8
0
  5
E0F
 10
48.5567
 20
74.9098
 30
0.000000
  70
    32
  0
VERTEX
  8
0
  5
E10
 10
48.5642
 20
74.9079
 30
0.000000
  70
    32
  0
VERTEX
  8
0
  5
E11
 10
48.5717
 20
74.9061
 30
0.000000
  70
    32
  0
VERTEX
  8
0
  5
E12
 10
48.5793
 20
74.9044
 30
0.000000
  70
    32
  0
VERTEX
  8
0
  5
E13
 10
48.5869
 20
74.9028
 30
0.000000
  70
    32
  0
VERTEX
  8
0
  5
E14
 10
48.5946
 20
74.9012
 30
0.000000
  70
    32
  0
VERTEX
  8
0
  5
E15
 10
48.6022
 20
74.8998
 30
0.000000
  70
    32
  0
VERTEX
  8
0
  5
E16
 10
48.6100
 20
74.8985
 30
0.000000
  70
    32
  0
VERTEX
  8
0
  5
E17
 10
48.6177
 20
74.8973
 30
0.000000
  70
    32
  0
VERTEX
  8
0
  5
E18
 10
48.6255
 20
74.8962
 30
0.000000
  70
    32
  0
VERTEX
  8
0
  5
E19
 10
48.6333
 20
74.8952
 30
0.000000
  70
    32
  0
VERTEX
  8
0
  5
E1A
 10
48.6412
 20
74.8943
 30
0.000000
  70
    32
  0
VERTEX
  8
0
  5
E1B
 10
48.6490
 20
74.8936
 30
0.000000
  70
    32
  0
VERTEX
  8
0
  5
E1C
 10
48.6570
 20
74.8929
 30
0.000000
  70
    32
  0
VERTEX
  8
0
  5
E1D
 10
48.6649
 20
74.8923
 30
0.000000
  70
    32
  0
VERTEX
  8
0
  5
E1E
 10
48.6729
 20
74.8919
 30
0.000000
  70
    32
  0
VERTEX
  8
0
  5
E1F
 10
48.6809
 20
74.8916
 30
0.000000
  70
    32
  0
VERTEX
  8
0
  5
E20
 10
48.6889
 20
74.8913
 30
0.000000
  70
    32
  0
VERTEX
  8
0
  5
E21
 10
48.6970
 20
74.8912
 30
0.000000
  70
    32
  0
VERTEX
  8
0
  5
E22
 10
48.7049
 20
74.8912
 30
0.000000
  70
    32
  0
VERTEX
  8
0
  5
E23
 10
48.7126
 20
74.8913
 30
0.000000
  70
    32
  0
VERTEX
  8
0
  5
E24
 10
48.7204
 20
74.8915
 30
0.000000
  70
    32
  0
VERTEX
  8
0
  5
E25
 10
48.7281
 20
74.8918
 30
0.000000
  70
    32
  0
VERTEX
  8
0
  5
E26
 10
48.7357
 20
74.8923
 30
0.000000
  70
    32
  0
VERTEX
  8
0
  5
E27
 10
48.7434
 20
74.8928
 30
0.000000
  70
    32
  0
VERTEX
  8
0
  5
E28
 10
48.7510
 20
74.8934
 30
0.000000
  70
    32
  0
VERTEX
  8
0
  5
E29
 10
48.7586
 20
74.8941
 30
0.000000
  70
    32
  0
VERTEX
  8
0
  5
E2A
 10
48.7661
 20
74.8949
 30
0.000000
  70
    32
  0
VERTEX
  8
0
  5
E2B
 10
48.7736
 20
74.8959
 30
0.000000
  70
    32
  0
VERTEX
  8
0
  5
E2C
 10
48.7811
 20
74.8969
 30
0.000000
  70
    32
  0
VERTEX
  8
0
  5
E2D
 10
48.7886
 20
74.8980
 30
0.000000
  70
    32
  0
VERTEX
  8
0
  5
E2E
 10
48.7960
 20
74.8992
 30
0.000000
  70
    32
  0
VERTEX
  8
0
  5
E2F
 10
48.8034
 20
74.9005
 30
0.000000
  70
    32
  0
VERTEX
  8
0
  5
E30
 10
48.8108
 20
74.9019
 30
0.000000
  70
    32
  0
VERTEX
  8
0
  5
E31
 10
48.8181
 20
74.9034
 30
0.000000
  70
    32
  0
VERTEX
  8
0
  5
E32
 10
48.8254
 20
74.9050
 30
0.000000
  70
    32
  0
VERTEX
  8
0
  5
E33
 10
48.8327
 20
74.9067
 30
0.000000
  70
    32
  0
VERTEX
  8
0
  5
E34
 10
48.8399
 20
74.9085
 30
0.000000
  70
    32
  0
VERTEX
  8
0
  5
E35
 10
48.8471
 20
74.9104
 30
0.000000
  70
    32
  0
VERTEX
  8
0
  5
E36
 10
48.8542
 20
74.9123
 30
0.000000
  70
    32
  0
VERTEX
  8
0
  5
E37
 10
48.8613
 20
74.9144
 30
0.000000
  70
    32
  0
VERTEX
  8
0
  5
E38
 10
48.8684
 20
74.9165
 30
0.000000
  70
    32
  0
VERTEX
  8
0
  5
E39
 10
48.8754
 20
74.9188
 30
0.000000
  70
    32
  0
VERTEX
  8
0
  5
E3A
 10
48.8824
 20
74.9211
 30
0.000000
  70
    32
  0
VERTEX
  8
0
  5
E3B
 10
48.8894
 20
74.9235
 30
0.000000
  70
    32
  0
VERTEX
  8
0
  5
E3C
 10
48.8963
 20
74.9260
 30
0.000000
  70
    32
  0
VERTEX
  8
0
  5
E3D
 10
48.9031
 20
74.9286
 30
0.000000
  70
    32
  0
VERTEX
  8
0
  5
E3E
 10
48.9100
 20
74.9313
 30
0.000000
  70
    32
  0
VERTEX
  8
0
  5
E3F
 10
48.9167
 20
74.9341
 30
0.000000
  70
    32
  0
VERTEX
  8
0
  5
E40
 10
48.9235
 20
74.9369
 30
0.000000
  70
    32
  0
VERTEX
  8
0
  5
E41
 10
48.9302
 20
74.9398
 30
0.000000
  70
    32
  0
VERTEX
  8
0
  5
E42
 10
48.9368
 20
74.9429
 30
0.000000
  70
    32
  0
VERTEX
  8
0
  5
E43
 10
48.9434
 20
74.9460
 30
0.000000
  70
    32
  0
VERTEX
  8
0
  5
E44
 10
48.9500
 20
74.9491
 30
0.000000
  70
    32
  0
VERTEX
  8
0
  5
E45
 10
48.9565
 20
74.9524
 30
0.000000
  70
    32
  0
VERTEX
  8
0
  5
E46
 10
48.9629
 20
74.9558
 30
0.000000
  70
    32
  0
VERTEX
  8
0
  5
E47
 10
48.9693
 20
74.9592
 30
0.000000
  70
    32
  0
VERTEX
  8
0
  5
E48
 10
48.9757
 20
74.9627
 30
0.000000
  70
    32
  0
VERTEX
  8
0
  5
E49
 10
48.9820
 20
74.9663
 30
0.000000
  70
    32
  0
VERTEX
  8
0
  5
E4A
 10
48.9883
 20
74.9699
 30
0.000000
  70
    32
  0
VERTEX
  8
0
  5
E4B
 10
48.9945
 20
74.9737
 30
0.000000
  70
    32
  0
VERTEX
  8
0
  5
E4C
 10
49.0006
 20
74.9775
 30
0.000000
  70
    32
  0
VERTEX
  8
0
  5
E4D
 10
49.0067
 20
74.9814
 30
0.000000
  70
    32
  0
VERTEX
  8
0
  5
E4E
 10
49.0128
 20
74.9854
 30
0.000000
  70
    32
  0
VERTEX
  8
0
  5
E4F
 10
49.0187
 20
74.9894
 30
0.000000
  70
    32
  0
VERTEX
  8
0
  5
E50
 10
49.0247
 20
74.9935
 30
0.000000
  70
    32
  0
VERTEX
  8
0
  5
E51
 10
49.0306
 20
74.9977
 30
0.000000
  70
    32
  0
VERTEX
  8
0
  5
E52
 10
49.0364
 20
75.0020
 30
0.000000
  70
    32
  0
VERTEX
  8
0
  5
E53
 10
49.0422
 20
75.0063
 30
0.000000
  70
    32
  0
VERTEX
  8
0
  5
E54
 10
49.0479
 20
75.0108
 30
0.000000
  70
    32
  0
VERTEX
  8
0
  5
E55
 10
49.0535
 20
75.0152
 30
0.000000
  70
    32
  0
VERTEX
  8
0
  5
E56
 10
49.0591
 20
75.0198
 30
0.000000
  70
    32
  0
VERTEX
  8
0
  5
E57
 10
49.0646
 20
75.0244
 30
0.000000
  70
    32
  0
VERTEX
  8
0
  5
E58
 10
49.0701
 20
75.0291
 30
0.000000
  70
    32
  0
VERTEX
  8
0
  5
E59
 10
49.0755
 20
75.0339
 30
0.000000
  70
    32
  0
VERTEX
  8
0
  5
E5A
 10
49.0809
 20
75.0387
 30
0.000000
  70
    32
  0
VERTEX
  8
0
  5
E5B
 10
49.0862
 20
75.0436
 30
0.000000
  70
    32
  0
VERTEX
  8
0
  5
E5C
 10
49.0914
 20
75.0486
 30
0.000000
  70
    32
  0
VERTEX
  8
0
  5
E5D
 10
49.0966
 20
75.0536
 30
0.000000
  70
    32
  0
VERTEX
  8
0
  5
E5E
 10
49.1017
 20
75.0587
 30
0.000000
  70
    32
  0
VERTEX
  8
0
  5
E5F
 10
49.1067
 20
75.0638
 30
0.000000
  70
    32
  0
VERTEX
  8
0
  5
E60
 10
49.1116
 20
75.0691
 30
0.000000
  70
    32
  0
VERTEX
  8
0
  5
E61
 10
49.1165
 20
75.0744
 30
0.000000
  70
    32
  0
VERTEX
  8
0
  5
E62
 10
49.1214
 20
75.0797
 30
0.000000
  70
    32
  0
VERTEX
  8
0
  5
E63
 10
49.1261
 20
75.0851
 30
0.000000
  70
    32
  0
VERTEX
  8
0
  5
E64
 10
49.1308
 20
75.0906
 30
0.000000
  70
    32
  0
VERTEX
  8
0
  5
E65
 10
49.1355
 20
75.0961
 30
0.000000
  70
    32
  0
VERTEX
  8
0
  5
E66
 10
49.1400
 20
75.1017
 30
0.000000
  70
    32
  0
VERTEX
  8
0
  5
E67
 10
49.1445
 20
75.1074
 30
0.000000
  70
    32
  0
VERTEX
  8
0
  5
E68
 10
49.1489
 20
75.1131
 30
0.000000
  70
    32
  0
VERTEX
  8
0
  5
E69
 10
49.1533
 20
75.1188
 30
0.000000
  70
    32
  0
VERTEX
  8
0
  5
E6A
 10
49.1575
 20
75.1247
 30
0.000000
  70
    32
  0
VERTEX
  8
0
  5
E6B
 10
49.1617
 20
75.1305
 30
0.000000
  70
    32
  0
VERTEX
  8
0
  5
E6C
 10
49.1659
 20
75.1365
 30
0.000000
  70
    32
  0
VERTEX
  8
0
  5
E6D
 10
49.1699
 20
75.1425
 30
0.000000
  70
    32
  0
VERTEX
  8
0
  5
E6E
 10
49.1739
 20
75.1485
 30
0.000000
  70
    32
  0
VERTEX
  8
0
  5
E6F
 10
49.1778
 20
75.1546
 30
0.000000
  70
    32
  0
VERTEX
  8
0
  5
E70
 10
49.1816
 20
75.1607
 30
0.000000
  70
    32
  0
VERTEX
  8
0
  5
E71
 10
49.1854
 20
75.1670
 30
0.000000
  70
    32
  0
VERTEX
  8
0
  5
E72
 10
49.1890
 20
75.1732
 30
0.000000
  70
    32
  0
VERTEX
  8
0
  5
E73
 10
49.1926
 20
75.1795
 30
0.000000
  70
    32
  0
VERTEX
  8
0
  5
E74
 10
49.1961
 20
75.1859
 30
0.000000
  70
    32
  0
VERTEX
  8
0
  5
E75
 10
49.1996
 20
75.1923
 30
0.000000
  70
    32
  0
VERTEX
  8
0
  5
E76
 10
49.2029
 20
75.1987
 30
0.000000
  70
    32
  0
VERTEX
  8
0
  5
E77
 10
49.2062
 20
75.2052
 30
0.000000
  70
    32
  0
VERTEX
  8
0
  5
E78
 10
49.2094
 20
75.2118
 30
0.000000
  70
    32
  0
VERTEX
  8
0
  5
E79
 10
49.2125
 20
75.2184
 30
0.000000
  70
    32
  0
VERTEX
  8
0
  5
E7A
 10
49.2155
 20
75.2250
 30
0.000000
  70
    32
  0
VERTEX
  8
0
  5
E7B
 10
49.2184
 20
75.2317
 30
0.000000
  70
    32
  0
VERTEX
  8
0
  5
E7C
 10
49.2213
 20
75.2384
 30
0.000000
  70
    32
  0
VERTEX
  8
0
  5
E7D
 10
49.2241
 20
75.2452
 30
0.000000
  70
    32
  0
VERTEX
  8
0
  5
E7E
 10
49.2267
 20
75.2520
 30
0.000000
  70
    32
  0
VERTEX
  8
0
  5
E7F
 10
49.2293
 20
75.2589
 30
0.000000
  70
    32
  0
VERTEX
  8
0
  5
E80
 10
49.2318
 20
75.2658
 30
0.000000
  70
    32
  0
VERTEX
  8
0
  5
E81
 10
49.2343
 20
75.2728
 30
0.000000
  70
    32
  0
VERTEX
  8
0
  5
E82
 10
49.2366
 20
75.2797
 30
0.000000
  70
    32
  0
VERTEX
  8
0
  5
E83
 10
49.2388
 20
75.2868
 30
0.000000
  70
    32
  0
VERTEX
  8
0
  5
E84
 10
49.2410
 20
75.2938
 30
0.000000
  70
    32
  0
VERTEX
  8
0
  5
E85
 10
49.2431
 20
75.3010
 30
0.000000
  70
    32
  0
VERTEX
  8
0
  5
E86
 10
49.2450
 20
75.3081
 30
0.000000
  70
    32
  0
VERTEX
  8
0
  5
E87
 10
49.2469
 20
75.3153
 30
0.000000
  70
    32
  0
VERTEX
  8
0
  5
E88
 10
49.2487
 20
75.3225
 30
0.000000
  70
    32
  0
VERTEX
  8
0
  5
E89
 10
49.2504
 20
75.3298
 30
0.000000
  70
    32
  0
VERTEX
  8
0
  5
E8A
 10
49.2520
 20
75.3371
 30
0.000000
  70
    32
  0
VERTEX
  8
0
  5
E8B
 10
49.2535
 20
75.3444
 30
0.000000
  70
    32
  0
VERTEX
  8
0
  5
E8C
 10
49.2549
 20
75.3517
 30
0.000000
  70
    32
  0
VERTEX
  8
0
  5
E8D
 10
49.2562
 20
75.3591
 30
0.000000
  70
    32
  0
VERTEX
  8
0
  5
E8E
 10
49.2574
 20
75.3666
 30
0.000000
  70
    32
  0
VERTEX
  8
0
  5
E8F
 10
49.2586
 20
75.3740
 30
0.000000
  70
    32
  0
VERTEX
  8
0
  5
E90
 10
49.2596
 20
75.3815
 30
0.000000
  70
    32
  0
VERTEX
  8
0
  5
E91
 10
49.2605
 20
75.3890
 30
0.000000
  70
    32
  0
SEQEND
  8
0
  5
E92
  0
LINE
  5
52
  8
GAIKEI
 10
61.833504
 20
83.400862
 30
0.0
 11
61.833504
 21
67.400846
 31
0.0
  0
POLYLINE
  8
0
  5
E93
  66
     1
 10
0.000000
 20
0.000000
 30
0.000000
  70
     8
  0
VERTEX
  8
0
  5
E94
 10
81.7403
 20
83.4009
 30
0.000000
  70
    32
  0
VERTEX
  8
0
  5
E95
 10
81.7403
 20
83.3979
 30
0.000000
  70
    32
  0
VERTEX
  8
0
  5
E96
 10
81.7403
 20
83.3891
 30
0.000000
  70
    32
  0
VERTEX
  8
0
  5
E97
 10
81.7403
 20
83.3745
 30
0.000000
  70
    32
  0
VERTEX
  8
0
  5
E98
 10
81.7403
 20
83.3543
 30
0.000000
  70
    32
  0
VERTEX
  8
0
  5
E99
 10
81.7403
 20
83.3284
 30
0.000000
  70
    32
  0
VERTEX
  8
0
  5
E9A
 10
81.7403
 20
83.2971
 30
0.000000
  70
    32
  0
VERTEX
  8
0
  5
E9B
 10
81.7403
 20
83.2604
 30
0.000000
  70
    32
  0
VERTEX
  8
0
  5
E9C
 10
81.7403
 20
83.2184
 30
0.000000
  70
    32
  0
VERTEX
  8
0
  5
E9D
 10
81.7403
 20
83.1712
 30
0.000000
  70
    32
  0
VERTEX
  8
0
  5
E9E
 10
81.7403
 20
83.1189
 30
0.000000
  70
    32
  0
VERTEX
  8
0
  5
E9F
 10
81.7403
 20
83.0616
 30
0.000000
  70
    32
  0
VERTEX
  8
0
  5
EA0
 10
81.7403
 20
82.9994
 30
0.000000
  70
    32
  0
VERTEX
  8
0
  5
EA1
 10
81.7403
 20
82.9323
 30
0.000000
  70
    32
  0
VERTEX
  8
0
  5
EA2
 10
81.7403
 20
82.8605
 30
0.000000
  70
    32
  0
VERTEX
  8
0
  5
EA3
 10
81.7403
 20
82.7841
 30
0.000000
  70
    32
  0
VERTEX
  8
0
  5
EA4
 10
81.7403
 20
82.7031
 30
0.000000
  70
    32
  0
VERTEX
  8
0
  5
EA5
 10
81.7403
 20
82.6177
 30
0.000000
  70
    32
  0
VERTEX
  8
0
  5
EA6
 10
81.7403
 20
82.5279
 30
0.000000
  70
    32
  0
VERTEX
  8
0
  5
EA7
 10
81.7403
 20
82.4339
 30
0.000000
  70
    32
  0
VERTEX
  8
0
  5
EA8
 10
81.7403
 20
82.3357
 30
0.000000
  70
    32
  0
VERTEX
  8
0
  5
EA9
 10
81.7403
 20
82.2334
 30
0.000000
  70
    32
  0
VERTEX
  8
0
  5
EAA
 10
81.7403
 20
82.1271
 30
0.000000
  70
    32
  0
VERTEX
  8
0
  5
EAB
 10
81.7403
 20
82.0169
 30
0.000000
  70
    32
  0
VERTEX
  8
0
  5
EAC
 10
81.7403
 20
81.9030
 30
0.000000
  70
    32
  0
VERTEX
  8
0
  5
EAD
 10
81.7403
 20
81.7853
 30
0.000000
  70
    32
  0
VERTEX
  8
0
  5
EAE
 10
81.7403
 20
81.6640
 30
0.000000
  70
    32
  0
VERTEX
  8
0
  5
EAF
 10
81.7403
 20
81.5392
 30
0.000000
  70
    32
  0
VERTEX
  8
0
  5
EB0
 10
81.7403
 20
81.4110
 30
0.000000
  70
    32
  0
VERTEX
  8
0
  5
EB1
 10
81.7403
 20
81.2795
 30
0.000000
  70
    32
  0
VERTEX
  8
0
  5
EB2
 10
81.7403
 20
81.1447
 30
0.000000
  70
    32
  0
VERTEX
  8
0
  5
EB3
 10
81.7403
 20
81.0068
 30
0.000000
  70
    32
  0
VERTEX
  8
0
  5
EB4
 10
81.7403
 20
80.8659
 30
0.000000
  70
    32
  0
VERTEX
  8
0
  5
EB5
 10
81.7403
 20
80.7220
 30
0.000000
  70
    32
  0
VERTEX
  8
0
  5
EB6
 10
81.7403
 20
80.5752
 30
0.000000
  70
    32
  0
VERTEX
  8
0
  5
EB7
 10
81.7403
 20
80.4257
 30
0.000000
  70
    32
  0
VERTEX
  8
0
  5
EB8
 10
81.7403
 20
80.2735
 30
0.000000
  70
    32
  0
VERTEX
  8
0
  5
EB9
 10
81.7403
 20
80.1187
 30
0.000000
  70
    32
  0
VERTEX
  8
0
  5
EBA
 10
81.7403
 20
79.9615
 30
0.000000
  70
    32
  0
VERTEX
  8
0
  5
EBB
 10
81.7403
 20
79.8018
 30
0.000000
  70
    32
  0
VERTEX
  8
0
  5
EBC
 10
81.7403
 20
79.6399
 30
0.000000
  70
    32
  0
VERTEX
  8
0
  5
EBD
 10
81.7403
 20
79.4757
 30
0.000000
  70
    32
  0
VERTEX
  8
0
  5
EBE
 10
81.7403
 20
79.3095
 30
0.000000
  70
    32
  0
VERTEX
  8
0
  5
EBF
 10
81.7403
 20
79.1412
 30
0.000000
  70
    32
  0
VERTEX
  8
0
  5
EC0
 10
81.7403
 20
78.9710
 30
0.000000
  70
    32
  0
VERTEX
  8
0
  5
EC1
 10
81.7403
 20
78.7990
 30
0.000000
  70
    32
  0
VERTEX
  8
0
  5
EC2
 10
81.7403
 20
78.6253
 30
0.000000
  70
    32
  0
VERTEX
  8
0
  5
EC3
 10
81.7403
 20
78.4499
 30
0.000000
  70
    32
  0
VERTEX
  8
0
  5
EC4
 10
81.7403
 20
78.2729
 30
0.000000
  70
    32
  0
VERTEX
  8
0
  5
EC5
 10
81.7403
 20
78.0945
 30
0.000000
  70
    32
  0
VERTEX
  8
0
  5
EC6
 10
81.7403
 20
77.9148
 30
0.000000
  70
    32
  0
VERTEX
  8
0
  5
EC7
 10
81.7403
 20
77.7338
 30
0.000000
  70
    32
  0
VERTEX
  8
0
  5
EC8
 10
81.7403
 20
77.5516
 30
0.000000
  70
    32
  0
VERTEX
  8
0
  5
EC9
 10
81.7403
 20
77.3683
 30
0.000000
  70
    32
  0
VERTEX
  8
0
  5
ECA
 10
81.7403
 20
77.1841
 30
0.000000
  70
    32
  0
VERTEX
  8
0
  5
ECB
 10
81.7403
 20
76.9990
 30
0.000000
  70
    32
  0
VERTEX
  8
0
  5
ECC
 10
81.7403
 20
76.8130
 30
0.000000
  70
    32
  0
VERTEX
  8
0
  5
ECD
 10
81.7403
 20
76.6264
 30
0.000000
  70
    32
  0
VERTEX
  8
0
  5
ECE
 10
81.7403
 20
76.4391
 30
0.000000
  70
    32
  0
VERTEX
  8
0
  5
ECF
 10
81.7403
 20
76.2514
 30
0.000000
  70
    32
  0
VERTEX
  8
0
  5
ED0
 10
81.7403
 20
76.0632
 30
0.000000
  70
    32
  0
VERTEX
  8
0
  5
ED1
 10
81.7403
 20
75.8747
 30
0.000000
  70
    32
  0
VERTEX
  8
0
  5
ED2
 10
81.7403
 20
75.6859
 30
0.000000
  70
    32
  0
VERTEX
  8
0
  5
ED3
 10
81.7403
 20
75.4971
 30
0.000000
  70
    32
  0
VERTEX
  8
0
  5
ED4
 10
81.7403
 20
75.3081
 30
0.000000
  70
    32
  0
VERTEX
  8
0
  5
ED5
 10
81.7403
 20
75.1192
 30
0.000000
  70
    32
  0
VERTEX
  8
0
  5
ED6
 10
81.7403
 20
74.9305
 30
0.000000
  70
    32
  0
VERTEX
  8
0
  5
ED7
 10
81.7403
 20
74.7420
 30
0.000000
  70
    32
  0
VERTEX
  8
0
  5
ED8
 10
81.7403
 20
74.5538
 30
0.000000
  70
    32
  0
VERTEX
  8
0
  5
ED9
 10
81.7403
 20
74.3660
 30
0.000000
  70
    32
  0
VERTEX
  8
0
  5
EDA
 10
81.7403
 20
74.1788
 30
0.000000
  70
    32
  0
VERTEX
  8
0
  5
EDB
 10
81.7403
 20
73.9922
 30
0.000000
  70
    32
  0
VERTEX
  8
0
  5
EDC
 10
81.7403
 20
73.8062
 30
0.000000
  70
    32
  0
VERTEX
  8
0
  5
EDD
 10
81.7403
 20
73.6211
 30
0.000000
  70
    32
  0
VERTEX
  8
0
  5
EDE
 10
81.7403
 20
73.4368
 30
0.000000
  70
    32
  0
VERTEX
  8
0
  5
EDF
 10
81.7403
 20
73.2536
 30
0.000000
  70
    32
  0
VERTEX
  8
0
  5
EE0
 10
81.7403
 20
73.0714
 30
0.000000
  70
    32
  0
VERTEX
  8
0
  5
EE1
 10
81.7403
 20
72.8904
 30
0.000000
  70
    32
  0
VERTEX
  8
0
  5
EE2
 10
81.7403
 20
72.7106
 30
0.000000
  70
    32
  0
VERTEX
  8
0
  5
EE3
 10
81.7403
 20
72.5323
 30
0.000000
  70
    32
  0
VERTEX
  8
0
  5
EE4
 10
81.7403
 20
72.3553
 30
0.000000
  70
    32
  0
VERTEX
  8
0
  5
EE5
 10
81.7403
 20
72.1799
 30
0.000000
  70
    32
  0
VERTEX
  8
0
  5
EE6
 10
81.7403
 20
72.0062
 30
0.000000
  70
    32
  0
VERTEX
  8
0
  5
EE7
 10
81.7403
 20
71.8342
 30
0.000000
  70
    32
  0
VERTEX
  8
0
  5
EE8
 10
81.7403
 20
71.6640
 30
0.000000
  70
    32
  0
VERTEX
  8
0
  5
EE9
 10
81.7403
 20
71.4957
 30
0.000000
  70
    32
  0
VERTEX
  8
0
  5
EEA
 10
81.7403
 20
71.3294
 30
0.000000
  70
    32
  0
VERTEX
  8
0
  5
EEB
 10
81.7403
 20
71.1653
 30
0.000000
  70
    32
  0
VERTEX
  8
0
  5
EEC
 10
81.7403
 20
71.0034
 30
0.000000
  70
    32
  0
VERTEX
  8
0
  5
EED
 10
81.7403
 20
70.8437
 30
0.000000
  70
    32
  0
VERTEX
  8
0
  5
EEE
 10
81.7403
 20
70.6865
 30
0.000000
  70
    32
  0
VERTEX
  8
0
  5
EEF
 10
81.7403
 20
70.5317
 30
0.000000
  70
    32
  0
VERTEX
  8
0
  5
EF0
 10
81.7403
 20
70.3795
 30
0.000000
  70
    32
  0
VERTEX
  8
0
  5
EF1
 10
81.7403
 20
70.2300
 30
0.000000
  70
    32
  0
VERTEX
  8
0
  5
EF2
 10
81.7403
 20
70.0832
 30
0.000000
  70
    32
  0
VERTEX
  8
0
  5
EF3
 10
81.7403
 20
69.9393
 30
0.000000
  70
    32
  0
VERTEX
  8
0
  5
EF4
 10
81.7403
 20
69.7983
 30
0.000000
  70
    32
  0
VERTEX
  8
0
  5
EF5
 10
81.7403
 20
69.6604
 30
0.000000
  70
    32
  0
VERTEX
  8
0
  5
EF6
 10
81.7403
 20
69.5257
 30
0.000000
  70
    32
  0
VERTEX
  8
0
  5
EF7
 10
81.7403
 20
69.3941
 30
0.000000
  70
    32
  0
VERTEX
  8
0
  5
EF8
 10
81.7403
 20
69.2659
 30
0.000000
  70
    32
  0
VERTEX
  8
0
  5
EF9
 10
81.7403
 20
69.1411
 30
0.000000
  70
    32
  0
VERTEX
  8
0
  5
EFA
 10
81.7403
 20
69.0199
 30
0.000000
  70
    32
  0
VERTEX
  8
0
  5
EFB
 10
81.7403
 20
68.9022
 30
0.000000
  70
    32
  0
VERTEX
  8
0
  5
EFC
 10
81.7403
 20
68.7883
 30
0.000000
  70
    32
  0
VERTEX
  8
0
  5
EFD
 10
81.7403
 20
68.6781
 30
0.000000
  70
    32
  0
VERTEX
  8
0
  5
EFE
 10
81.7403
 20
68.5718
 30
0.000000
  70
    32
  0
VERTEX
  8
0
  5
EFF
 10
81.7403
 20
68.4695
 30
0.000000
  70
    32
  0
VERTEX
  8
0
  5
F00
 10
81.7403
 20
68.3713
 30
0.000000
  70
    32
  0
VERTEX
  8
0
  5
F01
 10
81.7403
 20
68.2772
 30
0.000000
  70
    32
  0
VERTEX
  8
0
  5
F02
 10
81.7403
 20
68.1875
 30
0.000000
  70
    32
  0
VERTEX
  8
0
  5
F03
 10
81.7403
 20
68.1020
 30
0.000000
  70
    32
  0
VERTEX
  8
0
  5
F04
 10
81.7403
 20
68.0211
 30
0.000000
  70
    32
  0
VERTEX
  8
0
  5
F05
 10
81.7403
 20
67.9446
 30
0.000000
  70
    32
  0
VERTEX
  8
0
  5
F06
 10
81.7403
 20
67.8728
 30
0.000000
  70
    32
  0
VERTEX
  8
0
  5
F07
 10
81.7403
 20
67.8058
 30
0.000000
  70
    32
  0
VERTEX
  8
0
  5
F08
 10
81.7403
 20
67.7435
 30
0.000000
  70
    32
  0
VERTEX
  8
0
  5
F09
 10
81.7403
 20
67.6862
 30
0.000000
  70
    32
  0
VERTEX
  8
0
  5
F0A
 10
81.7403
 20
67.6339
 30
0.000000
  70
    32
  0
VERTEX
  8
0
  5
F0B
 10
81.7403
 20
67.5867
 30
0.000000
  70
    32
  0
VERTEX
  8
0
  5
F0C
 10
81.7403
 20
67.5448
 30
0.000000
  70
    32
  0
VERTEX
  8
0
  5
F0D
 10
81.7403
 20
67.5081
 30
0.000000
  70
    32
  0
VERTEX
  8
0
  5
F0E
 10
81.7403
 20
67.4767
 30
0.000000
  70
    32
  0
VERTEX
  8
0
  5
F0F
 10
81.7403
 20
67.4509
 30
0.000000
  70
    32
  0
VERTEX
  8
0
  5
F10
 10
81.7403
 20
67.4307
 30
0.000000
  70
    32
  0
VERTEX
  8
0
  5
F11
 10
81.7403
 20
67.4161
 30
0.000000
  70
    32
  0
VERTEX
  8
0
  5
F12
 10
81.7403
 20
67.4073
 30
0.000000
  70
    32
  0
VERTEX
  8
0
  5
F13
 10
81.7403
 20
67.4043
 30
0.000000
  70
    32
  0
SEQEND
  8
0
  5
F14
  0
LINE
  5
54
  8
GAIKEI
  6
S10
 62
     1
 10
82.043307
 20
83.376149
 30
0.0
 11
82.043307
 21
67.404317
 31
0.0
  0
LINE
  5
56
  8
GAIKEI
  6
S10
 62
     1
 10
61.445443
 20
83.400862
 30
0.0
 11
61.445443
 21
67.460852
 31
0.0
  0
LINE
  5
57
  8
GAIKEI
 62
     1
 10
61.008203
 20
69.442733
 30
0.0
 11
61.791186
 21
69.083022
 31
0.0
  0
LINE
  5
58
  8
GAIKEI
 62
     1
 10
61.791186
 20
69.844762
 30
0.0
 11
61.008203
 21
69.442733
 31
0.0
  0
LINE
  5
59
  8
GAIKEI
 62
     1
 10
61.008203
 20
69.442733
 30
0.0
 11
61.854664
 21
69.442733
 31
0.0
  0
LINE
  5
5A
  8
GAIKEI
 62
     1
 10
82.554771
 20
69.442733
 30
0.0
 11
81.771871
 21
69.083022
 31
0.0
  0
LINE
  5
5B
  8
GAIKEI
 62
     1
 10
81.771871
 20
69.844762
 30
0.0
 11
82.554771
 21
69.442733
 31
0.0
  0
LINE
  5
5C
  8
GAIKEI
 62
     1
 10
82.554771
 20
69.442733
 30
0.0
 11
81.708393
 21
69.442733
 31
0.0
  0
LINE
  5
5D
  8
GAIKEI
 62
     1
 10
61.008203
 20
81.355504
 30
0.0
 11
61.791186
 21
80.995793
 31
0.0
  0
LINE
  5
5E
  8
GAIKEI
 62
     1
 10
61.791186
 20
81.757533
 30
0.0
 11
61.008203
 21
81.355504
 31
0.0
  0
LINE
  5
5F
  8
GAIKEI
 62
     1
 10
61.008203
 20
81.355504
 30
0.0
 11
61.854664
 21
81.355504
 31
0.0
  0
LINE
  5
60
  8
GAIKEI
 62
     1
 10
82.554771
 20
81.355504
 30
0.0
 11
81.771871
 21
80.995793
 31
0.0
  0
LINE
  5
61
  8
GAIKEI
 62
     1
 10
81.771871
 20
81.757533
 30
0.0
 11
82.554771
 21
81.355504
 31
0.0
  0
LINE
  5
62
  8
GAIKEI
 62
     1
 10
82.554771
 20
81.355504
 30
0.0
 11
81.708393
 21
81.355504
 31
0.0
  0
POLYLINE
  8
0
  5
F15
  66
     1
 10
0.000000
 20
0.000000
 30
0.000000
  70
     8
  0
VERTEX
  8
0
  5
F16
 10
61.8052
 20
49.5453
 30
0.000000
  70
    32
  0
VERTEX
  8
0
  5
F17
 10
61.8052
 20
49.5464
 30
0.000000
  70
    32
  0
VERTEX
  8
0
  5
F18
 10
61.8052
 20
49.5496
 30
0.000000
  70
    32
  0
VERTEX
  8
0
  5
F19
 10
61.8052
 20
49.5548
 30
0.000000
  70
    32
  0
VERTEX
  8
0
  5
F1A
 10
61.8052
 20
49.5621
 30
0.000000
  70
    32
  0
VERTEX
  8
0
  5
F1B
 10
61.8052
 20
49.5713
 30
0.000000
  70
    32
  0
VERTEX
  8
0
  5
F1C
 10
61.8052
 20
49.5825
 30
0.000000
  70
    32
  0
VERTEX
  8
0
  5
F1D
 10
61.8052
 20
49.5956
 30
0.000000
  70
    32
  0
VERTEX
  8
0
  5
F1E
 10
61.8052
 20
49.6106
 30
0.000000
  70
    32
  0
VERTEX
  8
0
  5
F1F
 10
61.8052
 20
49.6274
 30
0.000000
  70
    32
  0
VERTEX
  8
0
  5
F20
 10
61.8052
 20
49.6460
 30
0.000000
  70
    32
  0
VERTEX
  8
0
  5
F21
 10
61.8052
 20
49.6663
 30
0.000000
  70
    32
  0
VERTEX
  8
0
  5
F22
 10
61.8052
 20
49.6884
 30
0.000000
  70
    32
  0
VERTEX
  8
0
  5
F23
 10
61.8052
 20
49.7122
 30
0.000000
  70
    32
  0
VERTEX
  8
0
  5
F24
 10
61.8052
 20
49.7376
 30
0.000000
  70
    32
  0
VERTEX
  8
0
  5
F25
 10
61.8052
 20
49.7646
 30
0.000000
  70
    32
  0
VERTEX
  8
0
  5
F26
 10
61.8052
 20
49.7931
 30
0.000000
  70
    32
  0
VERTEX
  8
0
  5
F27
 10
61.8052
 20
49.8232
 30
0.000000
  70
    32
  0
VERTEX
  8
0
  5
F28
 10
61.8052
 20
49.8548
 30
0.000000
  70
    32
  0
VERTEX
  8
0
  5
F29
 10
61.8052
 20
49.8879
 30
0.000000
  70
    32
  0
VERTEX
  8
0
  5
F2A
 10
61.8052
 20
49.9223
 30
0.000000
  70
    32
  0
VERTEX
  8
0
  5
F2B
 10
61.8052
 20
49.9581
 30
0.000000
  70
    32
  0
VERTEX
  8
0
  5
F2C
 10
61.8052
 20
49.9953
 30
0.000000
  70
    32
  0
VERTEX
  8
0
  5
F2D
 10
61.8052
 20
50.0337
 30
0.000000
  70
    32
  0
VERTEX
  8
0
  5
F2E
 10
61.8052
 20
50.0734
 30
0.000000
  70
    32
  0
VERTEX
  8
0
  5
F2F
 10
61.8052
 20
50.1143
 30
0.000000
  70
    32
  0
VERTEX
  8
0
  5
F30
 10
61.8052
 20
50.1564
 30
0.000000
  70
    32
  0
VERTEX
  8
0
  5
F31
 10
61.8052
 20
50.1997
 30
0.000000
  70
    32
  0
VERTEX
  8
0
  5
F32
 10
61.8052
 20
50.2440
 30
0.000000
  70
    32
  0
VERTEX
  8
0
  5
F33
 10
61.8052
 20
50.2895
 30
0.000000
  70
    32
  0
VERTEX
  8
0
  5
F34
 10
61.8052
 20
50.3359
 30
0.000000
  70
    32
  0
VERTEX
  8
0
  5
F35
 10
61.8052
 20
50.3833
 30
0.000000
  70
    32
  0
VERTEX
  8
0
  5
F36
 10
61.8052
 20
50.4317
 30
0.000000
  70
    32
  0
VERTEX
  8
0
  5
F37
 10
61.8052
 20
50.4810
 30
0.000000
  70
    32
  0
VERTEX
  8
0
  5
F38
 10
61.8052
 20
50.5312
 30
0.000000
  70
    32
  0
VERTEX
  8
0
  5
F39
 10
61.8052
 20
50.5822
 30
0.000000
  70
    32
  0
VERTEX
  8
0
  5
F3A
 10
61.8052
 20
50.6340
 30
0.000000
  70
    32
  0
VERTEX
  8
0
  5
F3B
 10
61.8052
 20
50.6865
 30
0.000000
  70
    32
  0
VERTEX
  8
0
  5
F3C
 10
61.8052
 20
50.7398
 30
0.000000
  70
    32
  0
VERTEX
  8
0
  5
F3D
 10
61.8052
 20
50.7938
 30
0.000000
  70
    32
  0
VERTEX
  8
0
  5
F3E
 10
61.8052
 20
50.8484
 30
0.000000
  70
    32
  0
VERTEX
  8
0
  5
F3F
 10
61.8052
 20
50.9036
 30
0.000000
  70
    32
  0
VERTEX
  8
0
  5
F40
 10
61.8052
 20
50.9594
 30
0.000000
  70
    32
  0
VERTEX
  8
0
  5
F41
 10
61.8052
 20
51.0157
 30
0.000000
  70
    32
  0
VERTEX
  8
0
  5
F42
 10
61.8052
 20
51.0724
 30
0.000000
  70
    32
  0
VERTEX
  8
0
  5
F43
 10
61.8052
 20
51.1297
 30
0.000000
  70
    32
  0
VERTEX
  8
0
  5
F44
 10
61.8052
 20
51.1873
 30
0.000000
  70
    32
  0
VERTEX
  8
0
  5
F45
 10
61.8052
 20
51.2454
 30
0.000000
  70
    32
  0
VERTEX
  8
0
  5
F46
 10
61.8052
 20
51.3037
 30
0.000000
  70
    32
  0
VERTEX
  8
0
  5
F47
 10
61.8052
 20
51.3624
 30
0.000000
  70
    32
  0
VERTEX
  8
0
  5
F48
 10
61.8052
 20
51.4213
 30
0.000000
  70
    32
  0
VERTEX
  8
0
  5
F49
 10
61.8052
 20
51.4805
 30
0.000000
  70
    32
  0
VERTEX
  8
0
  5
F4A
 10
61.8052
 20
51.5398
 30
0.000000
  70
    32
  0
VERTEX
  8
0
  5
F4B
 10
61.8052
 20
51.5993
 30
0.000000
  70
    32
  0
VERTEX
  8
0
  5
F4C
 10
61.8052
 20
51.6588
 30
0.000000
  70
    32
  0
VERTEX
  8
0
  5
F4D
 10
61.8052
 20
51.7185
 30
0.000000
  70
    32
  0
VERTEX
  8
0
  5
F4E
 10
61.8052
 20
51.7782
 30
0.000000
  70
    32
  0
VERTEX
  8
0
  5
F4F
 10
61.8052
 20
51.8378
 30
0.000000
  70
    32
  0
VERTEX
  8
0
  5
F50
 10
61.8052
 20
51.8974
 30
0.000000
  70
    32
  0
VERTEX
  8
0
  5
F51
 10
61.8052
 20
51.9570
 30
0.000000
  70
    32
  0
VERTEX
  8
0
  5
F52
 10
61.8052
 20
52.0164
 30
0.000000
  70
    32
  0
VERTEX
  8
0
  5
F53
 10
61.8052
 20
52.0756
 30
0.000000
  70
    32
  0
VERTEX
  8
0
  5
F54
 10
61.8052
 20
52.1346
 30
0.000000
  70
    32
  0
VERTEX
  8
0
  5
F55
 10
61.8052
 20
52.1934
 30
0.000000
  70
    32
  0
VERTEX
  8
0
  5
F56
 10
61.8052
 20
52.2520
 30
0.000000
  70
    32
  0
VERTEX
  8
0
  5
F57
 10
61.8052
 20
52.3102
 30
0.000000
  70
    32
  0
VERTEX
  8
0
  5
F58
 10
61.8052
 20
52.3680
 30
0.000000
  70
    32
  0
VERTEX
  8
0
  5
F59
 10
61.8052
 20
52.4255
 30
0.000000
  70
    32
  0
VERTEX
  8
0
  5
F5A
 10
61.8052
 20
52.4825
 30
0.000000
  70
    32
  0
VERTEX
  8
0
  5
F5B
 10
61.8052
 20
52.5390
 30
0.000000
  70
    32
  0
VERTEX
  8
0
  5
F5C
 10
61.8052
 20
52.5951
 30
0.000000
  70
    32
  0
VERTEX
  8
0
  5
F5D
 10
61.8052
 20
52.6506
 30
0.000000
  70
    32
  0
VERTEX
  8
0
  5
F5E
 10
61.8052
 20
52.7055
 30
0.000000
  70
    32
  0
VERTEX
  8
0
  5
F5F
 10
61.8052
 20
52.7598
 30
0.000000
  70
    32
  0
VERTEX
  8
0
  5
F60
 10
61.8052
 20
52.8134
 30
0.000000
  70
    32
  0
VERTEX
  8
0
  5
F61
 10
61.8052
 20
52.8663
 30
0.000000
  70
    32
  0
VERTEX
  8
0
  5
F62
 10
61.8052
 20
52.9185
 30
0.000000
  70
    32
  0
VERTEX
  8
0
  5
F63
 10
61.8052
 20
52.9699
 30
0.000000
  70
    32
  0
VERTEX
  8
0
  5
F64
 10
61.8052
 20
53.0205
 30
0.000000
  70
    32
  0
VERTEX
  8
0
  5
F65
 10
61.8052
 20
53.0702
 30
0.000000
  70
    32
  0
VERTEX
  8
0
  5
F66
 10
61.8052
 20
53.1191
 30
0.000000
  70
    32
  0
VERTEX
  8
0
  5
F67
 10
61.8052
 20
53.1670
 30
0.000000
  70
    32
  0
VERTEX
  8
0
  5
F68
 10
61.8052
 20
53.2139
 30
0.000000
  70
    32
  0
VERTEX
  8
0
  5
F69
 10
61.8052
 20
53.2599
 30
0.000000
  70
    32
  0
VERTEX
  8
0
  5
F6A
 10
61.8052
 20
53.3048
 30
0.000000
  70
    32
  0
VERTEX
  8
0
  5
F6B
 10
61.8052
 20
53.3486
 30
0.000000
  70
    32
  0
VERTEX
  8
0
  5
F6C
 10
61.8052
 20
53.3912
 30
0.000000
  70
    32
  0
VERTEX
  8
0
  5
F6D
 10
61.8052
 20
53.4328
 30
0.000000
  70
    32
  0
VERTEX
  8
0
  5
F6E
 10
61.8052
 20
53.4731
 30
0.000000
  70
    32
  0
VERTEX
  8
0
  5
F6F
 10
61.8052
 20
53.5122
 30
0.000000
  70
    32
  0
VERTEX
  8
0
  5
F70
 10
61.8052
 20
53.5500
 30
0.000000
  70
    32
  0
VERTEX
  8
0
  5
F71
 10
61.8052
 20
53.5864
 30
0.000000
  70
    32
  0
VERTEX
  8
0
  5
F72
 10
61.8052
 20
53.6216
 30
0.000000
  70
    32
  0
VERTEX
  8
0
  5
F73
 10
61.8052
 20
53.6553
 30
0.000000
  70
    32
  0
VERTEX
  8
0
  5
F74
 10
61.8052
 20
53.6876
 30
0.000000
  70
    32
  0
VERTEX
  8
0
  5
F75
 10
61.8052
 20
53.7185
 30
0.000000
  70
    32
  0
VERTEX
  8
0
  5
F76
 10
61.8052
 20
53.7478
 30
0.000000
  70
    32
  0
VERTEX
  8
0
  5
F77
 10
61.8052
 20
53.7756
 30
0.000000
  70
    32
  0
VERTEX
  8
0
  5
F78
 10
61.8052
 20
53.8018
 30
0.000000
  70
    32
  0
VERTEX
  8
0
  5
F79
 10
61.8052
 20
53.8264
 30
0.000000
  70
    32
  0
VERTEX
  8
0
  5
F7A
 10
61.8052
 20
53.8493
 30
0.000000
  70
    32
  0
VERTEX
  8
0
  5
F7B
 10
61.8052
 20
53.8705
 30
0.000000
  70
    32
  0
VERTEX
  8
0
  5
F7C
 10
61.8052
 20
53.8900
 30
0.000000
  70
    32
  0
VERTEX
  8
0
  5
F7D
 10
61.8052
 20
53.9077
 30
0.000000
  70
    32
  0
VERTEX
  8
0
  5
F7E
 10
61.8052
 20
53.9236
 30
0.000000
  70
    32
  0
VERTEX
  8
0
  5
F7F
 10
61.8052
 20
53.9377
 30
0.000000
  70
    32
  0
VERTEX
  8
0
  5
F80
 10
61.8052
 20
53.9498
 30
0.000000
  70
    32
  0
VERTEX
  8
0
  5
F81
 10
61.8052
 20
53.9601
 30
0.000000
  70
    32
  0
VERTEX
  8
0
  5
F82
 10
61.8052
 20
53.9683
 30
0.000000
  70
    32
  0
VERTEX
  8
0
  5
F83
 10
61.8052
 20
53.9746
 30
0.000000
  70
    32
  0
VERTEX
  8
0
  5
F84
 10
61.8052
 20
53.9788
 30
0.000000
  70
    32
  0
VERTEX
  8
0
  5
F85
 10
61.8052
 20
53.9809
 30
0.000000
  70
    32
  0
VERTEX
  8
0
  5
F86
 10
61.8052
 20
53.9889
 30
0.000000
  70
    32
  0
VERTEX
  8
0
  5
F87
 10
61.8049
 20
54.0043
 30
0.000000
  70
    32
  0
VERTEX
  8
0
  5
F88
 10
61.8044
 20
54.0194
 30
0.000000
  70
    32
  0
VERTEX
  8
0
  5
F89
 10
61.8036
 20
54.0342
 30
0.000000
  70
    32
  0
VERTEX
  8
0
  5
F8A
 10
61.8026
 20
54.0487
 30
0.000000
  70
    32
  0
VERTEX
  8
0
  5
F8B
 10
61.8013
 20
54.0629
 30
0.000000
  70
    32
  0
VERTEX
  8
0
  5
F8C
 10
61.7997
 20
54.0769
 30
0.000000
  70
    32
  0
VERTEX
  8
0
  5
F8D
 10
61.7979
 20
54.0906
 30
0.000000
  70
    32
  0
VERTEX
  8
0
  5
F8E
 10
61.7959
 20
54.1040
 30
0.000000
  70
    32
  0
VERTEX
  8
0
  5
F8F
 10
61.7936
 20
54.1172
 30
0.000000
  70
    32
  0
VERTEX
  8
0
  5
F90
 10
61.7912
 20
54.1301
 30
0.000000
  70
    32
  0
VERTEX
  8
0
  5
F91
 10
61.7885
 20
54.1427
 30
0.000000
  70
    32
  0
VERTEX
  8
0
  5
F92
 10
61.7856
 20
54.1551
 30
0.000000
  70
    32
  0
VERTEX
  8
0
  5
F93
 10
61.7824
 20
54.1672
 30
0.000000
  70
    32
  0
VERTEX
  8
0
  5
F94
 10
61.7791
 20
54.1791
 30
0.000000
  70
    32
  0
VERTEX
  8
0
  5
F95
 10
61.7756
 20
54.1907
 30
0.000000
  70
    32
  0
VERTEX
  8
0
  5
F96
 10
61.7718
 20
54.2021
 30
0.000000
  70
    32
  0
VERTEX
  8
0
  5
F97
 10
61.7679
 20
54.2132
 30
0.000000
  70
    32
  0
VERTEX
  8
0
  5
F98
 10
61.7638
 20
54.2241
 30
0.000000
  70
    32
  0
VERTEX
  8
0
  5
F99
 10
61.7595
 20
54.2347
 30
0.000000
  70
    32
  0
VERTEX
  8
0
  5
F9A
 10
61.7550
 20
54.2451
 30
0.000000
  70
    32
  0
VERTEX
  8
0
  5
F9B
 10
61.7504
 20
54.2553
 30
0.000000
  70
    32
  0
VERTEX
  8
0
  5
F9C
 10
61.7456
 20
54.2652
 30
0.000000
  70
    32
  0
VERTEX
  8
0
  5
F9D
 10
61.7406
 20
54.2749
 30
0.000000
  70
    32
  0
VERTEX
  8
0
  5
F9E
 10
61.7355
 20
54.2844
 30
0.000000
  70
    32
  0
VERTEX
  8
0
  5
F9F
 10
61.7302
 20
54.2937
 30
0.000000
  70
    32
  0
VERTEX
  8
0
  5
FA0
 10
61.7248
 20
54.3027
 30
0.000000
  70
    32
  0
VERTEX
  8
0
  5
FA1
 10
61.7192
 20
54.3115
 30
0.000000
  70
    32
  0
VERTEX
  8
0
  5
FA2
 10
61.7135
 20
54.3201
 30
0.000000
  70
    32
  0
VERTEX
  8
0
  5
FA3
 10
61.7076
 20
54.3285
 30
0.000000
  70
    32
  0
VERTEX
  8
0
  5
FA4
 10
61.7017
 20
54.3367
 30
0.000000
  70
    32
  0
VERTEX
  8
0
  5
FA5
 10
61.6956
 20
54.3447
 30
0.000000
  70
    32
  0
VERTEX
  8
0
  5
FA6
 10
61.6894
 20
54.3524
 30
0.000000
  70
    32
  0
VERTEX
  8
0
  5
FA7
 10
61.6830
 20
54.3600
 30
0.000000
  70
    32
  0
VERTEX
  8
0
  5
FA8
 10
61.6766
 20
54.3674
 30
0.000000
  70
    32
  0
VERTEX
  8
0
  5
FA9
 10
61.6701
 20
54.3745
 30
0.000000
  70
    32
  0
VERTEX
  8
0
  5
FAA
 10
61.6634
 20
54.3815
 30
0.000000
  70
    32
  0
VERTEX
  8
0
  5
FAB
 10
61.6567
 20
54.3883
 30
0.000000
  70
    32
  0
VERTEX
  8
0
  5
FAC
 10
61.6499
 20
54.3949
 30
0.000000
  70
    32
  0
VERTEX
  8
0
  5
FAD
 10
61.6430
 20
54.4013
 30
0.000000
  70
    32
  0
VERTEX
  8
0
  5
FAE
 10
61.6360
 20
54.4075
 30
0.000000
  70
    32
  0
VERTEX
  8
0
  5
FAF
 10
61.6289
 20
54.4135
 30
0.000000
  70
    32
  0
VERTEX
  8
0
  5
FB0
 10
61.6218
 20
54.4194
 30
0.000000
  70
    32
  0
VERTEX
  8
0
  5
FB1
 10
61.6146
 20
54.4251
 30
0.000000
  70
    32
  0
VERTEX
  8
0
  5
FB2
 10
61.6073
 20
54.4306
 30
0.000000
  70
    32
  0
VERTEX
  8
0
  5
FB3
 10
61.6000
 20
54.4359
 30
0.000000
  70
    32
  0
VERTEX
  8
0
  5
FB4
 10
61.5927
 20
54.4411
 30
0.000000
  70
    32
  0
VERTEX
  8
0
  5
FB5
 10
61.5853
 20
54.4461
 30
0.000000
  70
    32
  0
VERTEX
  8
0
  5
FB6
 10
61.5778
 20
54.4509
 30
0.000000
  70
    32
  0
VERTEX
  8
0
  5
FB7
 10
61.5703
 20
54.4556
 30
0.000000
  70
    32
  0
VERTEX
  8
0
  5
FB8
 10
61.5628
 20
54.4601
 30
0.000000
  70
    32
  0
VERTEX
  8
0
  5
FB9
 10
61.5553
 20
54.4645
 30
0.000000
  70
    32
  0
VERTEX
  8
0
  5
FBA
 10
61.5477
 20
54.4687
 30
0.000000
  70
    32
  0
VERTEX
  8
0
  5
FBB
 10
61.5402
 20
54.4728
 30
0.000000
  70
    32
  0
VERTEX
  8
0
  5
FBC
 10
61.5326
 20
54.4767
 30
0.000000
  70
    32
  0
VERTEX
  8
0
  5
FBD
 10
61.5250
 20
54.4805
 30
0.000000
  70
    32
  0
VERTEX
  8
0
  5
FBE
 10
61.5174
 20
54.4842
 30
0.000000
  70
    32
  0
VERTEX
  8
0
  5
FBF
 10
61.5098
 20
54.4877
 30
0.000000
  70
    32
  0
VERTEX
  8
0
  5
FC0
 10
61.5022
 20
54.4910
 30
0.000000
  70
    32
  0
VERTEX
  8
0
  5
FC1
 10
61.4947
 20
54.4943
 30
0.000000
  70
    32
  0
VERTEX
  8
0
  5
FC2
 10
61.4871
 20
54.4974
 30
0.000000
  70
    32
  0
VERTEX
  8
0
  5
FC3
 10
61.4796
 20
54.5003
 30
0.000000
  70
    32
  0
VERTEX
  8
0
  5
FC4
 10
61.4721
 20
54.5032
 30
0.000000
  70
    32
  0
VERTEX
  8
0
  5
FC5
 10
61.4646
 20
54.5059
 30
0.000000
  70
    32
  0
VERTEX
  8
0
  5
FC6
 10
61.4572
 20
54.5085
 30
0.000000
  70
    32
  0
VERTEX
  8
0
  5
FC7
 10
61.4498
 20
54.5110
 30
0.000000
  70
    32
  0
VERTEX
  8
0
  5
FC8
 10
61.4425
 20
54.5134
 30
0.000000
  70
    32
  0
VERTEX
  8
0
  5
FC9
 10
61.4352
 20
54.5157
 30
0.000000
  70
    32
  0
VERTEX
  8
0
  5
FCA
 10
61.4280
 20
54.5178
 30
0.000000
  70
    32
  0
VERTEX
  8
0
  5
FCB
 10
61.4208
 20
54.5199
 30
0.000000
  70
    32
  0
VERTEX
  8
0
  5
FCC
 10
61.4137
 20
54.5218
 30
0.000000
  70
    32
  0
VERTEX
  8
0
  5
FCD
 10
61.4067
 20
54.5237
 30
0.000000
  70
    32
  0
VERTEX
  8
0
  5
FCE
 10
61.3998
 20
54.5254
 30
0.000000
  70
    32
  0
VERTEX
  8
0
  5
FCF
 10
61.3929
 20
54.5271
 30
0.000000
  70
    32
  0
VERTEX
  8
0
  5
FD0
 10
61.3861
 20
54.5286
 30
0.000000
  70
    32
  0
VERTEX
  8
0
  5
FD1
 10
61.3794
 20
54.5301
 30
0.000000
  70
    32
  0
VERTEX
  8
0
  5
FD2
 10
61.3729
 20
54.5315
 30
0.000000
  70
    32
  0
VERTEX
  8
0
  5
FD3
 10
61.3664
 20
54.5328
 30
0.000000
  70
    32
  0
VERTEX
  8
0
  5
FD4
 10
61.3600
 20
54.5340
 30
0.000000
  70
    32
  0
VERTEX
  8
0
  5
FD5
 10
61.3537
 20
54.5351
 30
0.000000
  70
    32
  0
VERTEX
  8
0
  5
FD6
 10
61.3476
 20
54.5362
 30
0.000000
  70
    32
  0
VERTEX
  8
0
  5
FD7
 10
61.3415
 20
54.5372
 30
0.000000
  70
    32
  0
VERTEX
  8
0
  5
FD8
 10
61.3356
 20
54.5381
 30
0.000000
  70
    32
  0
VERTEX
  8
0
  5
FD9
 10
61.3298
 20
54.5389
 30
0.000000
  70
    32
  0
VERTEX
  8
0
  5
FDA
 10
61.3242
 20
54.5397
 30
0.000000
  70
    32
  0
VERTEX
  8
0
  5
FDB
 10
61.3187
 20
54.5404
 30
0.000000
  70
    32
  0
VERTEX
  8
0
  5
FDC
 10
61.3133
 20
54.5410
 30
0.000000
  70
    32
  0
VERTEX
  8
0
  5
FDD
 10
61.3081
 20
54.5416
 30
0.000000
  70
    32
  0
VERTEX
  8
0
  5
FDE
 10
61.3031
 20
54.5422
 30
0.000000
  70
    32
  0
VERTEX
  8
0
  5
FDF
 10
61.2982
 20
54.5427
 30
0.000000
  70
    32
  0
VERTEX
  8
0
  5
FE0
 10
61.2935
 20
54.5431
 30
0.000000
  70
    32
  0
VERTEX
  8
0
  5
FE1
 10
61.2889
 20
54.5435
 30
0.000000
  70
    32
  0
VERTEX
  8
0
  5
FE2
 10
61.2845
 20
54.5438
 30
0.000000
  70
    32
  0
VERTEX
  8
0
  5
FE3
 10
61.2803
 20
54.5441
 30
0.000000
  70
    32
  0
VERTEX
  8
0
  5
FE4
 10
61.2763
 20
54.5444
 30
0.000000
  70
    32
  0
VERTEX
  8
0
  5
FE5
 10
61.2725
 20
54.5446
 30
0.000000
  70
    32
  0
VERTEX
  8
0
  5
FE6
 10
61.2688
 20
54.5448
 30
0.000000
  70
    32
  0
VERTEX
  8
0
  5
FE7
 10
61.2654
 20
54.5450
 30
0.000000
  70
    32
  0
VERTEX
  8
0
  5
FE8
 10
61.2622
 20
54.5451
 30
0.000000
  70
    32
  0
VERTEX
  8
0
  5
FE9
 10
61.2592
 20
54.5452
 30
0.000000
  70
    32
  0
VERTEX
  8
0
  5
FEA
 10
61.2563
 20
54.5453
 30
0.000000
  70
    32
  0
VERTEX
  8
0
  5
FEB
 10
61.2538
 20
54.5453
 30
0.000000
  70
    32
  0
VERTEX
  8
0
  5
FEC
 10
61.2514
 20
54.5454
 30
0.000000
  70
    32
  0
VERTEX
  8
0
  5
FED
 10
61.2493
 20
54.5454
 30
0.000000
  70
    32
  0
VERTEX
  8
0
  5
FEE
 10
61.2474
 20
54.5454
 30
0.000000
  70
    32
  0
VERTEX
  8
0
  5
FEF
 10
61.2457
 20
54.5454
 30
0.000000
  70
    32
  0
VERTEX
  8
0
  5
FF0
 10
61.2443
 20
54.5454
 30
0.000000
  70
    32
  0
VERTEX
  8
0
  5
FF1
 10
61.2431
 20
54.5454
 30
0.000000
  70
    32
  0
VERTEX
  8
0
  5
FF2
 10
61.2422
 20
54.5454
 30
0.000000
  70
    32
  0
VERTEX
  8
0
  5
FF3
 10
61.2415
 20
54.5454
 30
0.000000
  70
    32
  0
VERTEX
  8
0
  5
FF4
 10
61.2411
 20
54.5453
 30
0.000000
  70
    32
  0
VERTEX
  8
0
  5
FF5
 10
61.2410
 20
54.5453
 30
0.000000
  70
    32
  0
SEQEND
  8
0
  5
FF6
  0
POLYLINE
  8
0
  5
FF7
  66
     1
 10
0.000000
 20
0.000000
 30
0.000000
  70
     8
  0
VERTEX
  8
0
  5
FF8
 10
61.4367
 20
53.9917
 30
0.000000
  70
    32
  0
VERTEX
  8
0
  5
FF9
 10
61.4367
 20
53.9909
 30
0.000000
  70
    32
  0
VERTEX
  8
0
  5
FFA
 10
61.4367
 20
53.9884
 30
0.000000
  70
    32
  0
VERTEX
  8
0
  5
FFB
 10
61.4367
 20
53.9844
 30
0.000000
  70
    32
  0
VERTEX
  8
0
  5
FFC
 10
61.4367
 20
53.9788
 30
0.000000
  70
    32
  0
VERTEX
  8
0
  5
FFD
 10
61.4367
 20
53.9716
 30
0.000000
  70
    32
  0
VERTEX
  8
0
  5
FFE
 10
61.4367
 20
53.9629
 30
0.000000
  70
    32
  0
VERTEX
  8
0
  5
FFF
 10
61.4367
 20
53.9527
 30
0.000000
  70
    32
  0
VERTEX
  8
0
  5
1000
 10
61.4367
 20
53.9410
 30
0.000000
  70
    32
  0
VERTEX
  8
0
  5
1001
 10
61.4367
 20
53.9279
 30
0.000000
  70
    32
  0
VERTEX
  8
0
  5
1002
 10
61.4367
 20
53.9134
 30
0.000000
  70
    32
  0
VERTEX
  8
0
  5
1003
 10
61.4367
 20
53.8974
 30
0.000000
  70
    32
  0
VERTEX
  8
0
  5
1004
 10
61.4367
 20
53.8801
 30
0.000000
  70
    32
  0
VERTEX
  8
0
  5
1005
 10
61.4367
 20
53.8615
 30
0.000000
  70
    32
  0
VERTEX
  8
0
  5
1006
 10
61.4367
 20
53.8415
 30
0.000000
  70
    32
  0
VERTEX
  8
0
  5
1007
 10
61.4367
 20
53.8203
 30
0.000000
  70
    32
  0
VERTEX
  8
0
  5
1008
 10
61.4367
 20
53.7978
 30
0.000000
  70
    32
  0
VERTEX
  8
0
  5
1009
 10
61.4367
 20
53.7740
 30
0.000000
  70
    32
  0
VERTEX
  8
0
  5
100A
 10
61.4367
 20
53.7491
 30
0.000000
  70
    32
  0
VERTEX
  8
0
  5
100B
 10
61.4367
 20
53.7229
 30
0.000000
  70
    32
  0
VERTEX
  8
0
  5
100C
 10
61.4367
 20
53.6956
 30
0.000000
  70
    32
  0
VERTEX
  8
0
  5
100D
 10
61.4367
 20
53.6672
 30
0.000000
  70
    32
  0
VERTEX
  8
0
  5
100E
 10
61.4367
 20
53.6377
 30
0.000000
  70
    32
  0
VERTEX
  8
0
  5
100F
 10
61.4367
 20
53.6070
 30
0.000000
  70
    32
  0
VERTEX
  8
0
  5
1010
 10
61.4367
 20
53.5754
 30
0.000000
  70
    32
  0
VERTEX
  8
0
  5
1011
 10
61.4367
 20
53.5427
 30
0.000000
  70
    32
  0
VERTEX
  8
0
  5
1012
 10
61.4367
 20
53.5090
 30
0.000000
  70
    32
  0
VERTEX
  8
0
  5
1013
 10
61.4367
 20
53.4743
 30
0.000000
  70
    32
  0
VERTEX
  8
0
  5
1014
 10
61.4367
 20
53.4386
 30
0.000000
  70
    32
  0
VERTEX
  8
0
  5
1015
 10
61.4367
 20
53.4021
 30
0.000000
  70
    32
  0
VERTEX
  8
0
  5
1016
 10
61.4367
 20
53.3646
 30
0.000000
  70
    32
  0
VERTEX
  8
0
  5
1017
 10
61.4367
 20
53.3263
 30
0.000000
  70
    32
  0
VERTEX
  8
0
  5
1018
 10
61.4367
 20
53.2871
 30
0.000000
  70
    32
  0
VERTEX
  8
0
  5
1019
 10
61.4367
 20
53.2471
 30
0.000000
  70
    32
  0
VERTEX
  8
0
  5
101A
 10
61.4367
 20
53.2063
 30
0.000000
  70
    32
  0
VERTEX
  8
0
  5
101B
 10
61.4367
 20
53.1647
 30
0.000000
  70
    32
  0
VERTEX
  8
0
  5
101C
 10
61.4367
 20
53.1224
 30
0.000000
  70
    32
  0
VERTEX
  8
0
  5
101D
 10
61.4367
 20
53.0794
 30
0.000000
  70
    32
  0
VERTEX
  8
0
  5
101E
 10
61.4367
 20
53.0357
 30
0.000000
  70
    32
  0
VERTEX
  8
0
  5
101F
 10
61.4367
 20
52.9913
 30
0.000000
  70
    32
  0
VERTEX
  8
0
  5
1020
 10
61.4367
 20
52.9463
 30
0.000000
  70
    32
  0
VERTEX
  8
0
  5
1021
 10
61.4367
 20
52.9007
 30
0.000000
  70
    32
  0
VERTEX
  8
0
  5
1022
 10
61.4367
 20
52.8545
 30
0.000000
  70
    32
  0
VERTEX
  8
0
  5
1023
 10
61.4367
 20
52.8077
 30
0.000000
  70
    32
  0
VERTEX
  8
0
  5
1024
 10
61.4367
 20
52.7604
 30
0.000000
  70
    32
  0
VERTEX
  8
0
  5
1025
 10
61.4367
 20
52.7126
 30
0.000000
  70
    32
  0
VERTEX
  8
0
  5
1026
 10
61.4367
 20
52.6643
 30
0.000000
  70
    32
  0
VERTEX
  8
0
  5
1027
 10
61.4367
 20
52.6155
 30
0.000000
  70
    32
  0
VERTEX
  8
0
  5
1028
 10
61.4367
 20
52.5664
 30
0.000000
  70
    32
  0
VERTEX
  8
0
  5
1029
 10
61.4367
 20
52.5168
 30
0.000000
  70
    32
  0
VERTEX
  8
0
  5
102A
 10
61.4367
 20
52.4668
 30
0.000000
  70
    32
  0
VERTEX
  8
0
  5
102B
 10
61.4367
 20
52.4165
 30
0.000000
  70
    32
  0
VERTEX
  8
0
  5
102C
 10
61.4367
 20
52.3659
 30
0.000000
  70
    32
  0
VERTEX
  8
0
  5
102D
 10
61.4367
 20
52.3149
 30
0.000000
  70
    32
  0
VERTEX
  8
0
  5
102E
 10
61.4367
 20
52.2637
 30
0.000000
  70
    32
  0
VERTEX
  8
0
  5
102F
 10
61.4367
 20
52.2123
 30
0.000000
  70
    32
  0
VERTEX
  8
0
  5
1030
 10
61.4367
 20
52.1606
 30
0.000000
  70
    32
  0
VERTEX
  8
0
  5
1031
 10
61.4367
 20
52.1087
 30
0.000000
  70
    32
  0
VERTEX
  8
0
  5
1032
 10
61.4367
 20
52.0566
 30
0.000000
  70
    32
  0
VERTEX
  8
0
  5
1033
 10
61.4367
 20
52.0045
 30
0.000000
  70
    32
  0
VERTEX
  8
0
  5
1034
 10
61.4367
 20
51.9522
 30
0.000000
  70
    32
  0
VERTEX
  8
0
  5
1035
 10
61.4367
 20
51.8998
 30
0.000000
  70
    32
  0
VERTEX
  8
0
  5
1036
 10
61.4367
 20
51.8473
 30
0.000000
  70
    32
  0
VERTEX
  8
0
  5
1037
 10
61.4367
 20
51.7948
 30
0.000000
  70
    32
  0
VERTEX
  8
0
  5
1038
 10
61.4367
 20
51.7423
 30
0.000000
  70
    32
  0
VERTEX
  8
0
  5
1039
 10
61.4367
 20
51.6898
 30
0.000000
  70
    32
  0
VERTEX
  8
0
  5
103A
 10
61.4367
 20
51.6373
 30
0.000000
  70
    32
  0
VERTEX
  8
0
  5
103B
 10
61.4367
 20
51.5849
 30
0.000000
  70
    32
  0
VERTEX
  8
0
  5
103C
 10
61.4367
 20
51.5326
 30
0.000000
  70
    32
  0
VERTEX
  8
0
  5
103D
 10
61.4367
 20
51.4804
 30
0.000000
  70
    32
  0
VERTEX
  8
0
  5
103E
 10
61.4367
 20
51.4284
 30
0.000000
  70
    32
  0
VERTEX
  8
0
  5
103F
 10
61.4367
 20
51.3765
 30
0.000000
  70
    32
  0
VERTEX
  8
0
  5
1040
 10
61.4367
 20
51.3248
 30
0.000000
  70
    32
  0
VERTEX
  8
0
  5
1041
 10
61.4367
 20
51.2733
 30
0.000000
  70
    32
  0
VERTEX
  8
0
  5
1042
 10
61.4367
 20
51.2221
 30
0.000000
  70
    32
  0
VERTEX
  8
0
  5
1043
 10
61.4367
 20
51.1712
 30
0.000000
  70
    32
  0
VERTEX
  8
0
  5
1044
 10
61.4367
 20
51.1206
 30
0.000000
  70
    32
  0
VERTEX
  8
0
  5
1045
 10
61.4367
 20
51.0702
 30
0.000000
  70
    32
  0
VERTEX
  8
0
  5
1046
 10
61.4367
 20
51.0203
 30
0.000000
  70
    32
  0
VERTEX
  8
0
  5
1047
 10
61.4367
 20
50.9707
 30
0.000000
  70
    32
  0
VERTEX
  8
0
  5
1048
 10
61.4367
 20
50.9215
 30
0.000000
  70
    32
  0
VERTEX
  8
0
  5
1049
 10
61.4367
 20
50.8728
 30
0.000000
  70
    32
  0
VERTEX
  8
0
  5
104A
 10
61.4367
 20
50.8245
 30
0.000000
  70
    32
  0
VERTEX
  8
0
  5
104B
 10
61.4367
 20
50.7767
 30
0.000000
  70
    32
  0
VERTEX
  8
0
  5
104C
 10
61.4367
 20
50.7293
 30
0.000000
  70
    32
  0
VERTEX
  8
0
  5
104D
 10
61.4367
 20
50.6826
 30
0.000000
  70
    32
  0
VERTEX
  8
0
  5
104E
 10
61.4367
 20
50.6364
 30
0.000000
  70
    32
  0
VERTEX
  8
0
  5
104F
 10
61.4367
 20
50.5907
 30
0.000000
  70
    32
  0
VERTEX
  8
0
  5
1050
 10
61.4367
 20
50.5457
 30
0.000000
  70
    32
  0
VERTEX
  8
0
  5
1051
 10
61.4367
 20
50.5013
 30
0.000000
  70
    32
  0
VERTEX
  8
0
  5
1052
 10
61.4367
 20
50.4576
 30
0.000000
  70
    32
  0
VERTEX
  8
0
  5
1053
 10
61.4367
 20
50.4146
 30
0.000000
  70
    32
  0
VERTEX
  8
0
  5
1054
 10
61.4367
 20
50.3723
 30
0.000000
  70
    32
  0
VERTEX
  8
0
  5
1055
 10
61.4367
 20
50.3308
 30
0.000000
  70
    32
  0
VERTEX
  8
0
  5
1056
 10
61.4367
 20
50.2900
 30
0.000000
  70
    32
  0
VERTEX
  8
0
  5
1057
 10
61.4367
 20
50.2500
 30
0.000000
  70
    32
  0
VERTEX
  8
0
  5
1058
 10
61.4367
 20
50.2108
 30
0.000000
  70
    32
  0
VERTEX
  8
0
  5
1059
 10
61.4367
 20
50.1724
 30
0.000000
  70
    32
  0
VERTEX
  8
0
  5
105A
 10
61.4367
 20
50.1350
 30
0.000000
  70
    32
  0
VERTEX
  8
0
  5
105B
 10
61.4367
 20
50.0984
 30
0.000000
  70
    32
  0
VERTEX
  8
0
  5
105C
 10
61.4367
 20
50.0628
 30
0.000000
  70
    32
  0
VERTEX
  8
0
  5
105D
 10
61.4367
 20
50.0281
 30
0.000000
  70
    32
  0
VERTEX
  8
0
  5
105E
 10
61.4367
 20
49.9944
 30
0.000000
  70
    32
  0
VERTEX
  8
0
  5
105F
 10
61.4367
 20
49.9617
 30
0.000000
  70
    32
  0
VERTEX
  8
0
  5
1060
 10
61.4367
 20
49.9300
 30
0.000000
  70
    32
  0
VERTEX
  8
0
  5
1061
 10
61.4367
 20
49.8994
 30
0.000000
  70
    32
  0
VERTEX
  8
0
  5
1062
 10
61.4367
 20
49.8699
 30
0.000000
  70
    32
  0
VERTEX
  8
0
  5
1063
 10
61.4367
 20
49.8414
 30
0.000000
  70
    32
  0
VERTEX
  8
0
  5
1064
 10
61.4367
 20
49.8141
 30
0.000000
  70
    32
  0
VERTEX
  8
0
  5
1065
 10
61.4367
 20
49.7880
 30
0.000000
  70
    32
  0
VERTEX
  8
0
  5
1066
 10
61.4367
 20
49.7630
 30
0.000000
  70
    32
  0
VERTEX
  8
0
  5
1067
 10
61.4367
 20
49.7393
 30
0.000000
  70
    32
  0
VERTEX
  8
0
  5
1068
 10
61.4367
 20
49.7168
 30
0.000000
  70
    32
  0
VERTEX
  8
0
  5
1069
 10
61.4367
 20
49.6955
 30
0.000000
  70
    32
  0
VERTEX
  8
0
  5
106A
 10
61.4367
 20
49.6756
 30
0.000000
  70
    32
  0
VERTEX
  8
0
  5
106B
 10
61.4367
 20
49.6569
 30
0.000000
  70
    32
  0
VERTEX
  8
0
  5
106C
 10
61.4367
 20
49.6396
 30
0.000000
  70
    32
  0
VERTEX
  8
0
  5
106D
 10
61.4367
 20
49.6237
 30
0.000000
  70
    32
  0
VERTEX
  8
0
  5
106E
 10
61.4367
 20
49.6092
 30
0.000000
  70
    32
  0
VERTEX
  8
0
  5
106F
 10
61.4367
 20
49.5960
 30
0.000000
  70
    32
  0
VERTEX
  8
0
  5
1070
 10
61.4367
 20
49.5844
 30
0.000000
  70
    32
  0
VERTEX
  8
0
  5
1071
 10
61.4367
 20
49.5742
 30
0.000000
  70
    32
  0
VERTEX
  8
0
  5
1072
 10
61.4367
 20
49.5655
 30
0.000000
  70
    32
  0
VERTEX
  8
0
  5
1073
 10
61.4367
 20
49.5583
 30
0.000000
  70
    32
  0
VERTEX
  8
0
  5
1074
 10
61.4367
 20
49.5527
 30
0.000000
  70
    32
  0
VERTEX
  8
0
  5
1075
 10
61.4367
 20
49.5486
 30
0.000000
  70
    32
  0
VERTEX
  8
0
  5
1076
 10
61.4367
 20
49.5462
 30
0.000000
  70
    32
  0
VERTEX
  8
0
  5
1077
 10
61.4367
 20
49.5453
 30
0.000000
  70
    32
  0
SEQEND
  8
0
  5
1078
  0
POLYLINE
  8
0
  5
1079
  66
     1
 10
0.000000
 20
0.000000
 30
0.000000
  70
     8
  0
VERTEX
  8
0
  5
107A
 10
61.4367
 20
49.5453
 30
0.000000
  70
    32
  0
VERTEX
  8
0
  5
107B
 10
61.4368
 20
49.5453
 30
0.000000
  70
    32
  0
VERTEX
  8
0
  5
107C
 10
61.4370
 20
49.5453
 30
0.000000
  70
    32
  0
VERTEX
  8
0
  5
107D
 10
61.4373
 20
49.5453
 30
0.000000
  70
    32
  0
VERTEX
  8
0
  5
107E
 10
61.4378
 20
49.5453
 30
0.000000
  70
    32
  0
VERTEX
  8
0
  5
107F
 10
61.4384
 20
49.5453
 30
0.000000
  70
    32
  0
VERTEX
  8
0
  5
1080
 10
61.4391
 20
49.5453
 30
0.000000
  70
    32
  0
VERTEX
  8
0
  5
1081
 10
61.4399
 20
49.5453
 30
0.000000
  70
    32
  0
VERTEX
  8
0
  5
1082
 10
61.4409
 20
49.5453
 30
0.000000
  70
    32
  0
VERTEX
  8
0
  5
1083
 10
61.4420
 20
49.5453
 30
0.000000
  70
    32
  0
VERTEX
  8
0
  5
1084
 10
61.4432
 20
49.5453
 30
0.000000
  70
    32
  0
VERTEX
  8
0
  5
1085
 10
61.4445
 20
49.5453
 30
0.000000
  70
    32
  0
VERTEX
  8
0
  5
1086
 10
61.4459
 20
49.5453
 30
0.000000
  70
    32
  0
VERTEX
  8
0
  5
1087
 10
61.4475
 20
49.5453
 30
0.000000
  70
    32
  0
VERTEX
  8
0
  5
1088
 10
61.4491
 20
49.5453
 30
0.000000
  70
    32
  0
VERTEX
  8
0
  5
1089
 10
61.4509
 20
49.5453
 30
0.000000
  70
    32
  0
VERTEX
  8
0
  5
108A
 10
61.4528
 20
49.5453
 30
0.000000
  70
    32
  0
VERTEX
  8
0
  5
108B
 10
61.4547
 20
49.5453
 30
0.000000
  70
    32
  0
VERTEX
  8
0
  5
108C
 10
61.4568
 20
49.5453
 30
0.000000
  70
    32
  0
VERTEX
  8
0
  5
108D
 10
61.4590
 20
49.5453
 30
0.000000
  70
    32
  0
VERTEX
  8
0
  5
108E
 10
61.4612
 20
49.5453
 30
0.000000
  70
    32
  0
VERTEX
  8
0
  5
108F
 10
61.4636
 20
49.5453
 30
0.000000
  70
    32
  0
VERTEX
  8
0
  5
1090
 10
61.4660
 20
49.5453
 30
0.000000
  70
    32
  0
VERTEX
  8
0
  5
1091
 10
61.4686
 20
49.5453
 30
0.000000
  70
    32
  0
VERTEX
  8
0
  5
1092
 10
61.4712
 20
49.5453
 30
0.000000
  70
    32
  0
VERTEX
  8
0
  5
1093
 10
61.4739
 20
49.5453
 30
0.000000
  70
    32
  0
VERTEX
  8
0
  5
1094
 10
61.4767
 20
49.5453
 30
0.000000
  70
    32
  0
VERTEX
  8
0
  5
1095
 10
61.4796
 20
49.5453
 30
0.000000
  70
    32
  0
VERTEX
  8
0
  5
1096
 10
61.4825
 20
49.5453
 30
0.000000
  70
    32
  0
VERTEX
  8
0
  5
1097
 10
61.4856
 20
49.5453
 30
0.000000
  70
    32
  0
VERTEX
  8
0
  5
1098
 10
61.4887
 20
49.5453
 30
0.000000
  70
    32
  0
VERTEX
  8
0
  5
1099
 10
61.4918
 20
49.5453
 30
0.000000
  70
    32
  0
VERTEX
  8
0
  5
109A
 10
61.4951
 20
49.5453
 30
0.000000
  70
    32
  0
VERTEX
  8
0
  5
109B
 10
61.4984
 20
49.5453
 30
0.000000
  70
    32
  0
VERTEX
  8
0
  5
109C
 10
61.5018
 20
49.5453
 30
0.000000
  70
    32
  0
VERTEX
  8
0
  5
109D
 10
61.5052
 20
49.5453
 30
0.000000
  70
    32
  0
VERTEX
  8
0
  5
109E
 10
61.5087
 20
49.5453
 30
0.000000
  70
    32
  0
VERTEX
  8
0
  5
109F
 10
61.5123
 20
49.5453
 30
0.000000
  70
    32
  0
VERTEX
  8
0
  5
10A0
 10
61.5159
 20
49.5453
 30
0.000000
  70
    32
  0
VERTEX
  8
0
  5
10A1
 10
61.5196
 20
49.5453
 30
0.000000
  70
    32
  0
VERTEX
  8
0
  5
10A2
 10
61.5233
 20
49.5453
 30
0.000000
  70
    32
  0
VERTEX
  8
0
  5
10A3
 10
61.5271
 20
49.5453
 30
0.000000
  70
    32
  0
VERTEX
  8
0
  5
10A4
 10
61.5309
 20
49.5453
 30
0.000000
  70
    32
  0
VERTEX
  8
0
  5
10A5
 10
61.5348
 20
49.5453
 30
0.000000
  70
    32
  0
VERTEX
  8
0
  5
10A6
 10
61.5387
 20
49.5453
 30
0.000000
  70
    32
  0
VERTEX
  8
0
  5
10A7
 10
61.5427
 20
49.5453
 30
0.000000
  70
    32
  0
VERTEX
  8
0
  5
10A8
 10
61.5467
 20
49.5453
 30
0.000000
  70
    32
  0
VERTEX
  8
0
  5
10A9
 10
61.5508
 20
49.5453
 30
0.000000
  70
    32
  0
VERTEX
  8
0
  5
10AA
 10
61.5548
 20
49.5453
 30
0.000000
  70
    32
  0
VERTEX
  8
0
  5
10AB
 10
61.5589
 20
49.5453
 30
0.000000
  70
    32
  0
VERTEX
  8
0
  5
10AC
 10
61.5631
 20
49.5453
 30
0.000000
  70
    32
  0
VERTEX
  8
0
  5
10AD
 10
61.5672
 20
49.5453
 30
0.000000
  70
    32
  0
VERTEX
  8
0
  5
10AE
 10
61.5714
 20
49.5453
 30
0.000000
  70
    32
  0
VERTEX
  8
0
  5
10AF
 10
61.5757
 20
49.5453
 30
0.000000
  70
    32
  0
VERTEX
  8
0
  5
10B0
 10
61.5799
 20
49.5453
 30
0.000000
  70
    32
  0
VERTEX
  8
0
  5
10B1
 10
61.5842
 20
49.5453
 30
0.000000
  70
    32
  0
VERTEX
  8
0
  5
10B2
 10
61.5885
 20
49.5453
 30
0.000000
  70
    32
  0
VERTEX
  8
0
  5
10B3
 10
61.5928
 20
49.5453
 30
0.000000
  70
    32
  0
VERTEX
  8
0
  5
10B4
 10
61.5971
 20
49.5453
 30
0.000000
  70
    32
  0
VERTEX
  8
0
  5
10B5
 10
61.6014
 20
49.5453
 30
0.000000
  70
    32
  0
VERTEX
  8
0
  5
10B6
 10
61.6057
 20
49.5453
 30
0.000000
  70
    32
  0
VERTEX
  8
0
  5
10B7
 10
61.6101
 20
49.5453
 30
0.000000
  70
    32
  0
VERTEX
  8
0
  5
10B8
 10
61.6144
 20
49.5453
 30
0.000000
  70
    32
  0
VERTEX
  8
0
  5
10B9
 10
61.6188
 20
49.5453
 30
0.000000
  70
    32
  0
VERTEX
  8
0
  5
10BA
 10
61.6231
 20
49.5453
 30
0.000000
  70
    32
  0
VERTEX
  8
0
  5
10BB
 10
61.6275
 20
49.5453
 30
0.000000
  70
    32
  0
VERTEX
  8
0
  5
10BC
 10
61.6318
 20
49.5453
 30
0.000000
  70
    32
  0
VERTEX
  8
0
  5
10BD
 10
61.6362
 20
49.5453
 30
0.000000
  70
    32
  0
VERTEX
  8
0
  5
10BE
 10
61.6405
 20
49.5453
 30
0.000000
  70
    32
  0
VERTEX
  8
0
  5
10BF
 10
61.6448
 20
49.5453
 30
0.000000
  70
    32
  0
VERTEX
  8
0
  5
10C0
 10
61.6492
 20
49.5453
 30
0.000000
  70
    32
  0
VERTEX
  8
0
  5
10C1
 10
61.6535
 20
49.5453
 30
0.000000
  70
    32
  0
VERTEX
  8
0
  5
10C2
 10
61.6577
 20
49.5453
 30
0.000000
  70
    32
  0
VERTEX
  8
0
  5
10C3
 10
61.6620
 20
49.5453
 30
0.000000
  70
    32
  0
VERTEX
  8
0
  5
10C4
 10
61.6662
 20
49.5453
 30
0.000000
  70
    32
  0
VERTEX
  8
0
  5
10C5
 10
61.6705
 20
49.5453
 30
0.000000
  70
    32
  0
VERTEX
  8
0
  5
10C6
 10
61.6747
 20
49.5453
 30
0.000000
  70
    32
  0
VERTEX
  8
0
  5
10C7
 10
61.6788
 20
49.5453
 30
0.000000
  70
    32
  0
VERTEX
  8
0
  5
10C8
 10
61.6830
 20
49.5453
 30
0.000000
  70
    32
  0
VERTEX
  8
0
  5
10C9
 10
61.6871
 20
49.5453
 30
0.000000
  70
    32
  0
VERTEX
  8
0
  5
10CA
 10
61.6912
 20
49.5453
 30
0.000000
  70
    32
  0
VERTEX
  8
0
  5
10CB
 10
61.6952
 20
49.5453
 30
0.000000
  70
    32
  0
VERTEX
  8
0
  5
10CC
 10
61.6992
 20
49.5453
 30
0.000000
  70
    32
  0
VERTEX
  8
0
  5
10CD
 10
61.7032
 20
49.5453
 30
0.000000
  70
    32
  0
VERTEX
  8
0
  5
10CE
 10
61.7071
 20
49.5453
 30
0.000000
  70
    32
  0
VERTEX
  8
0
  5
10CF
 10
61.7110
 20
49.5453
 30
0.000000
  70
    32
  0
VERTEX
  8
0
  5
10D0
 10
61.7148
 20
49.5453
 30
0.000000
  70
    32
  0
VERTEX
  8
0
  5
10D1
 10
61.7186
 20
49.5453
 30
0.000000
  70
    32
  0
VERTEX
  8
0
  5
10D2
 10
61.7223
 20
49.5453
 30
0.000000
  70
    32
  0
VERTEX
  8
0
  5
10D3
 10
61.7260
 20
49.5453
 30
0.000000
  70
    32
  0
VERTEX
  8
0
  5
10D4
 10
61.7296
 20
49.5453
 30
0.000000
  70
    32
  0
VERTEX
  8
0
  5
10D5
 10
61.7332
 20
49.5453
 30
0.000000
  70
    32
  0
VERTEX
  8
0
  5
10D6
 10
61.7367
 20
49.5453
 30
0.000000
  70
    32
  0
VERTEX
  8
0
  5
10D7
 10
61.7401
 20
49.5453
 30
0.000000
  70
    32
  0
VERTEX
  8
0
  5
10D8
 10
61.7435
 20
49.5453
 30
0.000000
  70
    32
  0
VERTEX
  8
0
  5
10D9
 10
61.7468
 20
49.5453
 30
0.000000
  70
    32
  0
VERTEX
  8
0
  5
10DA
 10
61.7501
 20
49.5453
 30
0.000000
  70
    32
  0
VERTEX
  8
0
  5
10DB
 10
61.7533
 20
49.5453
 30
0.000000
  70
    32
  0
VERTEX
  8
0
  5
10DC
 10
61.7564
 20
49.5453
 30
0.000000
  70
    32
  0
VERTEX
  8
0
  5
10DD
 10
61.7594
 20
49.5453
 30
0.000000
  70
    32
  0
VERTEX
  8
0
  5
10DE
 10
61.7623
 20
49.5453
 30
0.000000
  70
    32
  0
VERTEX
  8
0
  5
10DF
 10
61.7652
 20
49.5453
 30
0.000000
  70
    32
  0
VERTEX
  8
0
  5
10E0
 10
61.7680
 20
49.5453
 30
0.000000
  70
    32
  0
VERTEX
  8
0
  5
10E1
 10
61.7707
 20
49.5453
 30
0.000000
  70
    32
  0
VERTEX
  8
0
  5
10E2
 10
61.7734
 20
49.5453
 30
0.000000
  70
    32
  0
VERTEX
  8
0
  5
10E3
 10
61.7759
 20
49.5453
 30
0.000000
  70
    32
  0
VERTEX
  8
0
  5
10E4
 10
61.7783
 20
49.5453
 30
0.000000
  70
    32
  0
VERTEX
  8
0
  5
10E5
 10
61.7807
 20
49.5453
 30
0.000000
  70
    32
  0
VERTEX
  8
0
  5
10E6
 10
61.7830
 20
49.5453
 30
0.000000
  70
    32
  0
VERTEX
  8
0
  5
10E7
 10
61.7851
 20
49.5453
 30
0.000000
  70
    32
  0
VERTEX
  8
0
  5
10E8
 10
61.7872
 20
49.5453
 30
0.000000
  70
    32
  0
VERTEX
  8
0
  5
10E9
 10
61.7892
 20
49.5453
 30
0.000000
  70
    32
  0
VERTEX
  8
0
  5
10EA
 10
61.7910
 20
49.5453
 30
0.000000
  70
    32
  0
VERTEX
  8
0
  5
10EB
 10
61.7928
 20
49.5453
 30
0.000000
  70
    32
  0
VERTEX
  8
0
  5
10EC
 10
61.7944
 20
49.5453
 30
0.000000
  70
    32
  0
VERTEX
  8
0
  5
10ED
 10
61.7960
 20
49.5453
 30
0.000000
  70
    32
  0
VERTEX
  8
0
  5
10EE
 10
61.7974
 20
49.5453
 30
0.000000
  70
    32
  0
VERTEX
  8
0
  5
10EF
 10
61.7987
 20
49.5453
 30
0.000000
  70
    32
  0
VERTEX
  8
0
  5
10F0
 10
61.7999
 20
49.5453
 30
0.000000
  70
    32
  0
VERTEX
  8
0
  5
10F1
 10
61.8010
 20
49.5453
 30
0.000000
  70
    32
  0
VERTEX
  8
0
  5
10F2
 10
61.8020
 20
49.5453
 30
0.000000
  70
    32
  0
VERTEX
  8
0
  5
10F3
 10
61.8028
 20
49.5453
 30
0.000000
  70
    32
  0
VERTEX
  8
0
  5
10F4
 10
61.8036
 20
49.5453
 30
0.000000
  70
    32
  0
VERTEX
  8
0
  5
10F5
 10
61.8042
 20
49.5453
 30
0.000000
  70
    32
  0
VERTEX
  8
0
  5
10F6
 10
61.8046
 20
49.5453
 30
0.000000
  70
    32
  0
VERTEX
  8
0
  5
10F7
 10
61.8050
 20
49.5453
 30
0.000000
  70
    32
  0
VERTEX
  8
0
  5
10F8
 10
61.8052
 20
49.5453
 30
0.000000
  70
    32
  0
VERTEX
  8
0
  5
10F9
 10
61.8052
 20
49.5453
 30
0.000000
  70
    32
  0
SEQEND
  8
0
  5
10FA
  0
LINE
  5
90
  8
GAIKEI
 10
81.740297
 20
83.400862
 30
0.0
 11
81.740297
 21
67.404317
 31
0.0
  0
LINE
  5
91
  8
GAIKEI
 10
81.740297
 20
67.404317
 30
0.0
 11
86.240299
 21
67.404317
 31
0.0
  0
LINE
  5
92
  8
GAIKEI
 10
86.740299
 20
67.904317
 30
0.0
 11
86.740299
 21
82.900862
 31
0.0
  0
LINE
  5
93
  8
GAIKEI
 10
81.740297
 20
83.400862
 30
0.0
 11
86.240299
 21
83.400862
 31
0.0
  0
ARC
  5
94
  8
GAIKEI
 10
86.240299
 20
82.900862
 30
0.0
 40
0.5
 50
0.0
 51
90.0
  0
ARC
  5
95
  8
GAIKEI
 10
86.240299
 20
67.904317
 30
0.0
 40
0.5
 50
270.0
 51
0.0
  0
ARC
  5
96
  8
GAIKEI
 62
     1
 10
84.679991
 20
77.524911
 30
0.0
 40
0.62
 50
180.0
 51
270.0
  0
LINE
  5
97
  8
GAIKEI
 62
     1
 10
84.680724
 20
76.904911
 30
0.0
 11
84.679991
 21
76.904911
 31
0.0
  0
LINE
  5
98
  8
GAIKEI
 62
     1
 10
84.679259
 20
76.904911
 30
0.0
 11
84.679991
 21
76.904911
 31
0.0
  0
LINE
  5
99
  8
GAIKEI
 62
     1
 10
85.299991
 20
81.377394
 30
0.0
 11
85.299991
 21
77.524911
 31
0.0
  0
ARC
  5
9A
  8
GAIKEI
 62
     1
 10
84.679991
 20
77.524911
 30
0.0
 40
0.62
 50
270.0
 51
0.0
  0
LINE
  5
9B
  8
GAIKEI
 62
     1
 10
84.058692
 20
81.377394
 30
0.0
 11
84.058692
 21
77.544871
 31
0.0
  0
ARC
  5
9C
  8
GAIKEI
 62
     1
 10
84.678692
 20
81.377394
 30
0.0
 40
0.62
 50
90.0
 51
180.0
  0
ARC
  5
9D
  8
GAIKEI
 62
     1
 10
84.679991
 20
81.377394
 30
0.0
 40
0.62
 50
0.0
 51
90.0
  0
ARC
  5
9E
  8
GAIKEI
 62
     1
 10
84.681456
 20
69.371579
 30
0.0
 40
0.62
 50
270.0
 51
0.0
  0
ARC
  5
9F
  8
GAIKEI
 62
     1
 10
84.681456
 20
69.371579
 30
0.0
 40
0.62
 50
180.0
 51
270.0
  0
LINE
  5
A0
  8
GAIKEI
 62
     1
 10
84.680724
 20
68.751579
 30
0.0
 11
84.681456
 21
68.751579
 31
0.0
  0
LINE
  5
A1
  8
GAIKEI
 62
     1
 10
84.682188
 20
68.751579
 30
0.0
 11
84.681456
 21
68.751579
 31
0.0
  0
LINE
  5
A2
  8
GAIKEI
 62
     1
 10
85.301455
 20
73.224062
 30
0.0
 11
85.301456
 21
69.371579
 31
0.0
  0
ARC
  5
A3
  8
GAIKEI
 62
     1
 10
84.681455
 20
73.224062
 30
0.0
 40
0.62
 50
0.0
 51
90.0
  0
LINE
  5
A4
  8
GAIKEI
 62
     1
 10
84.060157
 20
73.224062
 30
0.0
 11
84.060157
 21
69.391539
 31
0.0
  0
ARC
  5
A5
  8
GAIKEI
 62
     1
 10
84.680157
 20
73.224062
 30
0.0
 40
0.62
 50
90.0
 51
180.0
  0
ARC
  5
A6
  8
GAIKEI
 62
     1
 10
59.915587
 20
70.507837
 30
0.0
 40
0.62
 50
270.0
 51
0.0
  0
ARC
  5
A7
  8
GAIKEI
 62
     1
 10
59.915587
 20
70.507837
 30
0.0
 40
0.62
 50
0.0
 51
90.0
  0
LINE
  5
A8
  8
GAIKEI
 62
     1
 10
53.820366
 20
69.886538
 30
0.0
 11
59.895627
 21
69.886538
 31
0.0
  0
LINE
  5
A9
  8
GAIKEI
 62
     1
 10
53.820366
 20
71.127837
 30
0.0
 11
59.915587
 21
71.127837
 31
0.0
  0
ARC
  5
AA
  8
GAIKEI
 62
     1
 10
53.820366
 20
70.507837
 30
0.0
 40
0.62
 50
90.0
 51
180.0
  0
ARC
  5
AB
  8
GAIKEI
 62
     1
 10
53.820366
 20
70.506538
 30
0.0
 40
0.62
 50
180.0
 51
270.0
  0
LINE
  5
AC
  8
GAIKEI
 62
     1
 10
60.535587
 20
70.50857
 30
0.0
 11
60.535587
 21
70.507837
 31
0.0
  0
LINE
  5
AD
  8
GAIKEI
 62
     1
 10
60.535587
 20
70.507105
 30
0.0
 11
60.535587
 21
70.507837
 31
0.0
  0
ARC
  5
AE
  8
GAIKEI
 62
     1
 10
59.915587
 20
80.467374
 30
0.0
 40
0.62
 50
0.0
 51
90.0
  0
ARC
  5
AF
  8
GAIKEI
 62
     1
 10
59.915587
 20
80.467374
 30
0.0
 40
0.62
 50
270.0
 51
0.0
  0
LINE
  5
B0
  8
GAIKEI
 62
     1
 10
53.820366
 20
81.087373
 30
0.0
 11
59.915587
 21
81.087374
 31
0.0
  0
LINE
  5
B1
  8
GAIKEI
 62
     1
 10
53.820366
 20
79.846074
 30
0.0
 11
59.895627
 21
79.846074
 31
0.0
  0
ARC
  5
B2
  8
GAIKEI
 62
     1
 10
53.820366
 20
80.466074
 30
0.0
 40
0.62
 50
180.0
 51
270.0
  0
ARC
  5
B3
  8
GAIKEI
 62
     1
 10
53.820366
 20
80.467373
 30
0.0
 40
0.62
 50
90.0
 51
180.0
  0
LINE
  5
B4
  8
GAIKEI
 62
     1
 10
60.535587
 20
80.466641
 30
0.0
 11
60.535587
 21
80.467374
 31
0.0
  0
LINE
  5
B5
  8
GAIKEI
 62
     1
 10
60.535587
 20
80.468106
 30
0.0
 11
60.535587
 21
80.467374
 31
0.0
  0
TEXT
  5
B6
  8
MOJI1
 10
42.5
 20
11.0
 30
0.0
 40
3.0
  1
亜鉛メッキ、黒色クロメート処理
  0
TEXT
  5
B7
  8
MOJI1
 10
42.5
 20
16.0
 30
0.0
 40
3.0
  1
ＳＰＣＣ　ｔ＝２．９
  0
TEXT
  5
B8
  8
MOJI1
 10
42.5
 20
21.0
 30
0.0
 40
3.0
  1
最大１３５°
  0
TEXT
  5
B9
  8
MOJI1
 10
42.5
 20
26.0
 30
0.0
 40
3.0
  1
ＷＴ－７０１５、ＷＴ－７０３０壁面取付用
  0
TEXT
  5
BA
  8
MOJI1
 10
42.5
 20
31.0
 30
0.0
 40
3.0
  1
ＷＴ－７１０、ＷＴ－７２０、ＷＴ－７３０
  0
LINE
  5
BB
  8
WAKU
 62
     1
 10
0.0
 20
20.0
 30
0.0
 11
125.0
 21
20.0
 31
0.0
  0
LINE
  5
BD
  8
WAKU
 62
     4
 10
0.0
 20
0.0
 30
0.0
 11
125.0
 21
0.0
 31
0.0
  0
LINE
  5
BE
  8
WAKU
 62
     4
 10
125.0
 20
35.0
 30
0.0
 11
0.0
 21
35.0
 31
0.0
  0
LINE
  5
BF
  8
WAKU
 62
     1
 10
0.0
 20
5.0
 30
0.0
 11
125.0
 21
5.0
 31
0.0
  0
LINE
  5
C0
  8
WAKU
 62
     1
 10
0.0
 20
10.0
 30
0.0
 11
125.0
 21
10.0
 31
0.0
  0
LINE
  5
C1
  8
WAKU
 62
     1
 10
0.0
 20
15.0
 30
0.0
 11
125.0
 21
15.0
 31
0.0
  0
LINE
  5
C2
  8
WAKU
 62
     1
 10
0.0
 20
25.0
 30
0.0
 11
125.0
 21
25.0
 31
0.0
  0
LINE
  5
C3
  8
WAKU
 62
     1
 10
0.0
 20
30.0
 30
0.0
 11
125.0
 21
30.0
 31
0.0
  0
LINE
  5
C4
  8
WAKU
 62
     4
 10
40.0
 20
0.0
 30
0.0
 11
40.0
 21
35.0
 31
0.0
  0
LINE
  5
C5
  8
WAKU
 62
     4
 10
0.0
 20
35.0
 30
0.0
 11
0.0
 21
0.0
 31
0.0
  0
TEXT
  5
C6
  8
MOJI1
 10
2.5
 20
21.0
 30
0.0
 40
3.0
  1
水平角度調整
  0
TEXT
  5
C7
  8
MOJI1
 10
2.5
 20
11.0
 30
0.0
 40
3.0
  1
仕上げ
  0
TEXT
  5
C8
  8
MOJI1
 10
2.5
 20
16.0
 30
0.0
 40
3.0
  1
材　質
  0
TEXT
  5
C9
  8
MOJI1
 10
2.5
 20
31.0
 30
0.0
 40
3.0
  1
適合機器
  0
LINE
  5
CA
  8
WAKU
 62
     4
 10
125.0
 20
0.0
 30
0.0
 11
125.0
 21
35.0
 31
0.0
  0
LINE
  5
142
  8
SUNPO
 10
63.833504
 20
67.400846
 30
0.0
 11
71.833504
 21
67.400846
 31
0.0
1001
ACAD
1000
RTLwPs
1070
   158
  0
LINE
  5
143
  8
SUNPO
 10
63.833504
 20
83.400862
 30
0.0
 11
71.833504
 21
83.400862
 31
0.0
1001
ACAD
1000
RTLwPs
1070
   158
  0
LINE
  5
144
  8
SUNPO
 10
69.833504
 20
69.400846
 30
0.0
 11
69.833504
 21
81.400862
 31
0.0
1001
ACAD
1000
RTLwPs
1070
   158
  0
POINT
  5
14A
  8
SUNPO
 10
69.833504
 20
83.400862
 30
0.0
  0
LINE
  5
14B
  8
SUNPO
 10
35.445445
 20
85.39455
 30
0.0
 11
35.445445
 21
93.39455
 31
0.0
1001
ACAD
1000
RTLwPs
1070
   158
  0
LINE
  5
14C
  8
SUNPO
 10
61.445443
 20
85.39455
 30
0.0
 11
61.445443
 21
93.39455
 31
0.0
1001
ACAD
1000
RTLwPs
1070
   158
  0
LINE
  5
14D
  8
SUNPO
 10
37.445445
 20
91.39455
 30
0.0
 11
59.445443
 21
91.39455
 31
0.0
1001
ACAD
1000
RTLwPs
1070
   158
  0
POINT
  5
153
  8
SUNPO
 10
61.445443
 20
91.39455
 30
0.0
  0
LINE
  5
154
  8
SUNPO
 10
81.740297
 20
85.39455
 30
0.0
 11
81.740297
 21
93.39455
 31
0.0
1001
ACAD
1000
RTLwPs
1070
   158
  0
LINE
  5
155
  8
SUNPO
 10
86.740299
 20
85.39455
 30
0.0
 11
86.740299
 21
93.39455
 31
0.0
1001
ACAD
1000
RTLwPs
1070
   158
  0
LINE
  5
156
  8
SUNPO
 10
83.740297
 20
91.39455
 30
0.0
 11
84.740299
 21
91.39455
 31
0.0
1001
ACAD
1000
RTLwPs
1070
   158
  0
LINE
  5
157
  8
SUNPO
 10
86.740299
 20
91.39455
 30
0.0
 11
93.906965
 21
91.39455
 31
0.0
1001
ACAD
1000
RTLwPs
1070
   158
  0
POINT
  5
15D
  8
SUNPO
 10
86.740299
 20
91.39455
 30
0.0
  0
LINE
  5
15E
  8
SUNPO
  6
BYBLOCK
 10
70.369403
 20
69.400846
 30
0.0
 11
69.833504
 21
67.400846
 31
0.0
  0
LINE
  5
15F
  8
SUNPO
  6
BYBLOCK
 10
69.833504
 20
67.400846
 30
0.0
 11
69.297606
 21
69.400846
 31
0.0
  0
LINE
  5
160
  8
SUNPO
  6
BYBLOCK
 10
69.833504
 20
67.400846
 30
0.0
 11
69.833504
 21
69.400846
 31
0.0
  0
LINE
  5
161
  8
SUNPO
  6
BYBLOCK
 10
37.445445
 20
90.858652
 30
0.0
 11
35.445445
 21
91.39455
 31
0.0
  0
LINE
  5
162
  8
SUNPO
  6
BYBLOCK
 10
35.445445
 20
91.39455
 30
0.0
 11
37.445445
 21
91.930449
 31
0.0
  0
LINE
  5
163
  8
SUNPO
  6
BYBLOCK
 10
35.445445
 20
91.39455
 30
0.0
 11
37.445445
 21
91.39455
 31
0.0
  0
TEXT
  5
164
  8
SUNPO
 10
45.112111
 20
91.89455
 30
0.0
 40
2.5
  1
260
  0
LINE
  5
165
  8
SUNPO
  6
BYBLOCK
 10
69.297606
 20
81.400862
 30
0.0
 11
69.833504
 21
83.400862
 31
0.0
  0
LINE
  5
166
  8
SUNPO
  6
BYBLOCK
 10
69.833504
 20
83.400862
 30
0.0
 11
70.369403
 21
81.400862
 31
0.0
  0
LINE
  5
167
  8
SUNPO
  6
BYBLOCK
 10
69.833504
 20
83.400862
 30
0.0
 11
69.833504
 21
81.400862
 31
0.0
  0
TEXT
  5
168
  8
SUNPO
 10
69.333504
 20
72.067521
 30
0.0
 40
2.5
  1
160
 50
90.0
  0
LINE
  5
169
  8
SUNPO
  6
BYBLOCK
 10
59.445443
 20
91.930449
 30
0.0
 11
61.445443
 21
91.39455
 31
0.0
  0
LINE
  5
16A
  8
SUNPO
  6
BYBLOCK
 10
61.445443
 20
91.39455
 30
0.0
 11
59.445443
 21
90.858652
 31
0.0
  0
LINE
  5
16B
  8
SUNPO
  6
BYBLOCK
 10
61.445443
 20
91.39455
 30
0.0
 11
59.445443
 21
91.39455
 31
0.0
  0
TEXT
  5
16C
  8
SUNPO
 10
89.240299
 20
91.89455
 30
0.0
 40
2.5
  1
50
  0
LINE
  5
16D
  8
SUNPO
  6
BYBLOCK
 10
84.740299
 20
91.930449
 30
0.0
 11
86.740299
 21
91.39455
 31
0.0
  0
LINE
  5
16E
  8
SUNPO
  6
BYBLOCK
 10
86.740299
 20
91.39455
 30
0.0
 11
84.740299
 21
90.858652
 31
0.0
  0
LINE
  5
16F
  8
SUNPO
  6
BYBLOCK
 10
86.740299
 20
91.39455
 30
0.0
 11
84.740299
 21
91.39455
 31
0.0
  0
LINE
  5
170
  8
SUNPO
  6
BYBLOCK
 10
83.740297
 20
90.858652
 30
0.0
 11
81.740297
 21
91.39455
 31
0.0
  0
LINE
  5
171
  8
SUNPO
  6
BYBLOCK
 10
81.740297
 20
91.39455
 30
0.0
 11
83.740297
 21
91.930449
 31
0.0
  0
LINE
  5
172
  8
SUNPO
  6
BYBLOCK
 10
81.740297
 20
91.39455
 30
0.0
 11
83.740297
 21
91.39455
 31
0.0
  0
ENDSEC
  0
EOF
