  0
SECTION
  2
HEADER
  9
$ACADVER
  1
AC1009
  9
$DWGCODEPAGE
  3
ansi_932
  9
$INSBASE
 10
-1314.525307523715
 20
-1213.554229997339
 30
0.0
  9
$EXTMIN
 10
-1315.049914505499
 20
-1460.080647305189
 30
0.0
  9
$EXTMAX
 10
-1056.016495889802
 20
-1065.823861728209
 30
0.0
  9
$LIMMIN
 10
-1496.721789782945
 20
-1459.795483884826
  9
$LIMMAX
 10
-874.8886558702359
 20
-1064.477727178396
  9
$ORTHOMODE
 70
     1
  9
$REGENMODE
 70
     1
  9
$FILLMODE
 70
     1
  9
$QTEXTMODE
 70
     0
  9
$MIRRTEXT
 70
     1
  9
$DRAGMODE
 70
     2
  9
$LTSCALE
 40
1.0
  9
$OSMODE
 70
    37
  9
$ATTMODE
 70
     1
  9
$TEXTSIZE
 40
3.0
  9
$TRACEWID
 40
0.5
  9
$TEXTSTYLE
  7
STANDARD
  9
$CLAYER
  8
SUNPO
  9
$CELTYPE
  6
BYLAYER
  9
$CECOLOR
 62
   256
  9
$DIMSCALE
 40
1.0
  9
$DIMASZ
 40
2.0
  9
$DIMEXO
 40
2.0
  9
$DIMDLI
 40
8.0
  9
$DIMRND
 40
0.0
  9
$DIMDLE
 40
0.0
  9
$DIMEXE
 40
2.0
  9
$DIMTP
 40
0.0
  9
$DIMTM
 40
0.0
  9
$DIMTXT
 40
2.5
  9
$DIMCEN
 40
0.0
  9
$DIMTSZ
 40
0.0
  9
$DIMTOL
 70
     0
  9
$DIMLIM
 70
     0
  9
$DIMTIH
 70
     0
  9
$DIMTOH
 70
     0
  9
$DIMSE1
 70
     0
  9
$DIMSE2
 70
     0
  9
$DIMTAD
 70
     3
  9
$DIMZIN
 70
     0
  9
$DIMBLK
  1

  9
$DIMASO
 70
     1
  9
$DIMSHO
 70
     1
  9
$DIMPOST
  1

  9
$DIMAPOST
  1

  9
$DIMALT
 70
     0
  9
$DIMALTD
 70
     2
  9
$DIMALTF
 40
25.4
  9
$DIMLFAC
 40
1.0
  9
$DIMTOFL
 70
     1
  9
$DIMTVP
 40
0.0
  9
$DIMTIX
 70
     0
  9
$DIMSOXD
 70
     0
  9
$DIMSAH
 70
     1
  9
$DIMBLK1
  1
OPEN30
  9
$DIMBLK2
  1
OPEN30
  9
$DIMSTYLE
  2
STANDARD
  9
$DIMCLRD
 70
     0
  9
$DIMCLRE
 70
     0
  9
$DIMCLRT
 70
     0
  9
$DIMTFAC
 40
1.0
  9
$DIMGAP
 40
0.5
  9
$LUNITS
 70
     2
  9
$LUPREC
 70
     4
  9
$SKETCHINC
 40
0.1
  9
$FILLETRAD
 40
0.0
  9
$AUNITS
 70
     0
  9
$AUPREC
 70
     0
  9
$MENU
  1
ACAD
  9
$ELEVATION
 40
0.0
  9
$PELEVATION
 40
0.0
  9
$THICKNESS
 40
0.0
  9
$LIMCHECK
 70
     0
  9
$BLIPMODE
 70
     0
  9
$CHAMFERA
 40
0.0
  9
$CHAMFERB
 40
0.0
  9
$SKPOLY
 70
     0
  9
$TDCREATE
 40
2451815.565532581
  9
$TDUPDATE
 40
2451968.440124884
  9
$TDINDWG
 40
0.4497012269
  9
$TDUSRTIMER
 40
0.4497012269
  9
$USRTIMER
 70
     1
  9
$ANGBASE
 50
0.0
  9
$ANGDIR
 70
     0
  9
$PDMODE
 70
     0
  9
$PDSIZE
 40
0.0
  9
$PLINEWID
 40
0.0
  9
$COORDS
 70
     1
  9
$SPLFRAME
 70
     0
  9
$SPLINETYPE
 70
     6
  9
$SPLINESEGS
 70
     8
  9
$ATTDIA
 70
     0
  9
$ATTREQ
 70
     1
  9
$HANDLING
 70
     1
  9
$HANDSEED
  5
144
  9
$SURFTAB1
 70
     6
  9
$SURFTAB2
 70
     6
  9
$SURFTYPE
 70
     6
  9
$SURFU
 70
     6
  9
$SURFV
 70
     6
  9
$UCSNAME
  2

  9
$UCSORG
 10
0.0
 20
0.0
 30
0.0
  9
$UCSXDIR
 10
1.0
 20
0.0
 30
0.0
  9
$UCSYDIR
 10
0.0
 20
1.0
 30
0.0
  9
$PUCSNAME
  2

  9
$PUCSORG
 10
0.0
 20
0.0
 30
0.0
  9
$PUCSXDIR
 10
1.0
 20
0.0
 30
0.0
  9
$PUCSYDIR
 10
0.0
 20
1.0
 30
0.0
  9
$USERI1
 70
     0
  9
$USERI2
 70
     0
  9
$USERI3
 70
     0
  9
$USERI4
 70
     0
  9
$USERI5
 70
     0
  9
$USERR1
 40
0.0
  9
$USERR2
 40
0.0
  9
$USERR3
 40
0.0
  9
$USERR4
 40
0.0
  9
$USERR5
 40
0.0
  9
$WORLDVIEW
 70
     1
  9
$SHADEDGE
 70
     3
  9
$SHADEDIF
 70
    70
  9
$TILEMODE
 70
     1
  9
$MAXACTVP
 70
    48
  9
$PLIMCHECK
 70
     0
  9
$PEXTMIN
 10
1.000000000000000E+20
 20
1.000000000000000E+20
 30
1.000000000000000E+20
  9
$PEXTMAX
 10
-1.000000000000000E+20
 20
-1.000000000000000E+20
 30
-1.000000000000000E+20
  9
$PLIMMIN
 10
0.0
 20
0.0
  9
$PLIMMAX
 10
12.0
 20
9.0
  9
$UNITMODE
 70
     0
  9
$VISRETAIN
 70
     1
  9
$PLINEGEN
 70
     0
  9
$PSLTSCALE
 70
     1
  0
ENDSEC
  0
SECTION
  2
TABLES
  0
TABLE
  2
VPORT
 70
     1
  0
VPORT
  2
*ACTIVE
 70
     0
 10
0.0
 20
0.0
 11
1.0
 21
1.0
 12
-1250.001469605497
 22
-1273.555687664177
 13
0.0
 23
0.0
 14
1.0
 24
1.0
 15
0.0
 25
0.0
 16
0.0
 26
0.0
 36
1.0
 17
0.0
 27
0.0
 37
0.0
 40
121.2597799722455
 41
1.56986301369863
 42
50.0
 43
0.0
 44
0.0
 50
0.0
 51
0.0
 71
     0
 72
   100
 73
     1
 74
     0
 75
     0
 76
     0
 77
     0
 78
     0
  0
ENDTAB
  0
TABLE
  2
LTYPE
 70
     1
  0
LTYPE
  2
CONTINUOUS
 70
     0
  3
Solid line
 72
    65
 73
     0
 40
0.0
  0
ENDTAB
  0
TABLE
  2
LAYER
 70
     5
  0
LAYER
  2
0
 70
     0
 62
     7
  6
CONTINUOUS
  0
LAYER
  2
WAKU
 70
     0
 62
     4
  6
CONTINUOUS
  0
LAYER
  2
MOJI1
 70
     0
 62
     2
  6
CONTINUOUS
  0
LAYER
  2
GAIKEI
 70
     0
 62
     7
  6
CONTINUOUS
  0
LAYER
  2
SUNPO
 70
     0
 62
     3
  6
CONTINUOUS
  0
ENDTAB
  0
TABLE
  2
STYLE
 70
     2
  0
STYLE
  2
STANDARD
 70
     0
 40
0.0
 41
1.0
 50
0.0
 71
     0
 42
3.0
  3
txt.shx
  4
bigfont.shx
  0
STYLE
  2
EXPLODED0
 70
     0
 40
0.2
 41
1.0
 50
0.0
 71
     0
 42
0.2
  3
txt.shx
  4
bigfont.shx
  0
ENDTAB
  0
TABLE
  2
VIEW
 70
     0
  0
ENDTAB
  0
TABLE
  2
UCS
 70
     0
  0
ENDTAB
  0
TABLE
  2
APPID
 70
     1
  0
APPID
  2
ACAD
 70
     0
  0
ENDTAB
  0
TABLE
  2
DIMSTYLE
 70
     1
  0
DIMSTYLE
  2
STANDARD
 70
     0
  3

  4

  5

  6
OPEN30
  7
OPEN30
 40
0.0
 41
2.0
 42
2.0
 43
8.0
 44
2.0
 45
0.0
 46
0.0
 47
0.0
 48
0.0
140
3.0
141
0.0
142
0.0
143
25.4
144
1.0
145
0.0
146
1.0
147
0.09
 71
     0
 72
     0
 73
     0
 74
     0
 75
     0
 76
     0
 77
     3
 78
     0
170
     0
171
     2
172
     0
173
     1
174
     0
175
     0
176
     0
177
     0
178
     0
  0
ENDTAB
  0
ENDSEC
  0
SECTION
  2
BLOCKS
  0
BLOCK
  8
0
  2
$MODEL_SPACE
 70
     0
 10
0.0
 20
0.0
 30
0.0
  3
$MODEL_SPACE
  1

  0
ENDBLK
  5
8
  8
0
 62
   256
  0
BLOCK
 67
     1
  8
0
  2
$PAPER_SPACE
 70
     0
 10
0.0
 20
0.0
 30
0.0
  3
$PAPER_SPACE
  1

  0
ENDBLK
  5
D
 67
     1
  8
0
 62
   256
  0
BLOCK
  8
0
  2
_OPEN30
 70
     0
 10
0.0
 20
0.0
 30
0.0
  3
_OPEN30
  1

  0
LINE
  5
25
  8
0
  6
BYBLOCK
 62
     0
 10
-1.0
 20
0.26794919
 30
0.0
 11
0.0
 21
0.0
 31
0.0
  0
LINE
  5
26
  8
0
  6
BYBLOCK
 62
     0
 10
0.0
 20
0.0
 30
0.0
 11
-1.0
 21
-0.26794919
 31
0.0
  0
LINE
  5
27
  8
0
  6
BYBLOCK
 62
     0
 10
0.0
 20
0.0
 30
0.0
 11
-1.0
 21
0.0
 31
0.0
  0
ENDBLK
  5
29
  8
0
 62
   256
  0
ENDSEC
  0
SECTION
  2
ENTITIES
  0
TEXT
  5
2A
  8
MOJI1
 62
   256
 10
-1285.525307523715
 20
-1219.554229997339
 30
0.0
 40
4.0
  1
ワイヤレスマイクロホン
  0
LINE
  5
2C
  8
WAKU
 62
     4
 10
-1187.525307523715
 20
-1328.554229997339
 30
0.0
 11
-1187.525307523715
 21
-1288.554229997339
 31
0.0
  0
TEXT
  5
2E
  8
MOJI1
 62
   256
 10
-1310.025307523715
 20
-1322.554229997339
 30
0.0
 40
3.0
  1
制御信号
  0
TEXT
  5
2F
  8
MOJI1
 62
   256
 10
-1270.025307523715
 20
-1322.554229997339
 30
0.0
 40
3.0
  1
音量調整用：４種類、外部制御用：４種類
 41
0.95
  0
LINE
  5
30
  8
WAKU
 62
     4
 10
-1312.525307523715
 20
-1288.554229997339
 30
0.0
 11
-1312.525307523715
 21
-1328.554229997339
 31
0.0
  0
LINE
  5
31
  8
WAKU
 62
     4
 10
-1272.525307523715
 20
-1328.554229997339
 30
0.0
 11
-1272.525307523715
 21
-1288.554229997339
 31
0.0
  0
LINE
  5
32
  8
WAKU
 62
     4
 10
-1312.525307523715
 20
-1328.554229997339
 30
0.0
 11
-1187.525307523715
 21
-1328.554229997339
 31
0.0
  0
LINE
  5
33
  8
WAKU
 62
     1
 10
-1312.525307523715
 20
-1323.554229997339
 30
0.0
 11
-1187.525307523715
 21
-1323.554229997339
 31
0.0
  0
TEXT
  5
34
  8
MOJI1
 62
   256
 10
-1270.025307523715
 20
-1327.554229997339
 30
0.0
 40
3.0
  1
電池残量用：３種類
 41
0.95
  0
LINE
  5
35
  8
WAKU
 62
     4
 10
-1187.525307523715
 20
-1288.554229997339
 30
0.0
 11
-1312.525307523715
 21
-1288.554229997339
 31
0.0
  0
LINE
  5
36
  8
WAKU
 62
     1
 10
-1312.525307523715
 20
-1318.554229997339
 30
0.0
 11
-1187.525307523715
 21
-1318.554229997339
 31
0.0
  0
LINE
  5
37
  8
WAKU
 62
     1
 10
-1312.525307523715
 20
-1313.554229997339
 30
0.0
 11
-1187.525307523715
 21
-1313.554229997339
 31
0.0
  0
LINE
  5
38
  8
WAKU
 62
     1
 10
-1312.525307523715
 20
-1308.554229997339
 30
0.0
 11
-1187.525307523715
 21
-1308.554229997339
 31
0.0
  0
LINE
  5
39
  8
WAKU
 62
     1
 10
-1312.525307523715
 20
-1303.554229997339
 30
0.0
 11
-1187.525307523715
 21
-1303.554229997339
 31
0.0
  0
LINE
  5
3A
  8
WAKU
 62
     1
 10
-1312.525307523715
 20
-1298.554229997339
 30
0.0
 11
-1187.525307523715
 21
-1298.554229997339
 31
0.0
  0
LINE
  5
3B
  8
WAKU
 62
     1
 10
-1312.525307523715
 20
-1293.554229997339
 30
0.0
 11
-1187.525307523715
 21
-1293.554229997339
 31
0.0
  0
LINE
  5
3C
  8
WAKU
 62
     1
 10
-1312.525307523715
 20
-1313.554229997339
 30
0.0
 11
-1187.525307523715
 21
-1313.554229997339
 31
0.0
  0
TEXT
  5
3D
  8
MOJI1
 62
   256
 10
-1310.025307523715
 20
-1302.554229997339
 30
0.0
 40
3.0
  1
発信周波数
  0
TEXT
  5
3E
  8
MOJI1
 62
   256
 10
-1310.025307523715
 20
-1312.554229997339
 30
0.0
 40
3.0
  1
使用マイク
  0
TEXT
  5
3F
  8
MOJI1
 62
   256
 10
-1310.025307523715
 20
-1317.554229997339
 30
0.0
 40
3.0
  1
周波数特性
  0
TEXT
  5
40
  8
MOJI1
 62
   256
 10
-1310.025307523715
 20
-1297.554229997339
 30
0.0
 40
3.0
  1
発振方式
  0
TEXT
  5
41
  8
MOJI1
 62
   256
 10
-1310.025307523715
 20
-1292.554229997339
 30
0.0
 40
3.0
  1
電波型式
  0
ARC
  5
42
  8
SUNPO
 62
   256
 10
-1248.402041673288
 20
-1249.403292501581
 30
0.0
 40
10.5
 50
0.0
 51
45.00000000000138
  0
LINE
  5
43
  8
GAIKEI
 62
     1
 10
-1252.414201646152
 20
-1242.231987431142
 30
0.0
 11
-1252.343490968031
 21
-1242.302698109262
 31
0.0
  0
LINE
  5
45
  8
GAIKEI
 62
     1
 10
-1252.767755036741
 20
-1241.878434040542
 30
0.0
 11
-1253.209884582901
 21
-1242.320563586702
 31
0.0
  0
LINE
  5
46
  8
GAIKEI
 62
     1
 10
-1253.729122397911
 20
-1242.274115976762
 30
0.0
 11
-1253.658411719791
 21
-1242.344826654882
 31
0.0
  0
LINE
  5
47
  8
GAIKEI
 62
     1
 10
-1253.544491104392
 20
-1242.230906039492
 30
0.0
 11
-1253.658411719791
 21
-1242.344826654882
 31
0.0
  0
LINE
  5
48
  8
GAIKEI
 62
     1
 10
-1253.280595261021
 20
-1242.249852908582
 30
0.0
 11
-1253.209884582901
 21
-1242.320563586702
 31
0.0
  0
LINE
  5
49
  8
GAIKEI
 62
     1
 10
-1253.544491104392
 20
-1242.230906039492
 30
0.0
 11
-1253.473780426271
 21
-1242.301616717602
 31
0.0
  0
LINE
  5
4A
  8
GAIKEI
 62
     1
 10
-1252.697044358622
 20
-1241.949144718662
 30
0.0
 11
-1253.139173904781
 21
-1242.391274264822
 31
0.0
  0
LINE
  5
4B
  8
GAIKEI
 62
     1
 10
-1252.626333680501
 20
-1242.019855396782
 30
0.0
 11
-1253.068463226661
 21
-1242.461984942942
 31
0.0
  0
LINE
  5
4C
  8
GAIKEI
 62
     1
 10
-1252.555623002381
 20
-1242.090566074902
 30
0.0
 11
-1252.997752548542
 21
-1242.532695621062
 31
0.0
  0
LINE
  5
4D
  8
GAIKEI
 62
     1
 10
-1252.484912324261
 20
-1242.161276753022
 30
0.0
 11
-1252.927041870421
 21
-1242.603406299182
 31
0.0
  0
LINE
  5
4E
  8
GAIKEI
 62
     1
 10
-1252.414201646152
 20
-1242.231987431142
 30
0.0
 11
-1252.856331192301
 21
-1242.674116977302
 31
0.0
  0
LINE
  5
4F
  8
GAIKEI
 62
   256
 10
-1254.068533652881
 20
-1240.562917566292
 30
0.0
 11
-1250.957263815662
 21
-1243.674187403512
 31
0.0
  0
TEXT
  5
50
  8
MOJI1
 62
   256
 10
-1270.025307523715
 20
-1297.554229997339
 30
0.0
 40
3.0
  1
水晶制御ＰＬＬシンセサイザー方式
  0
TEXT
  5
51
  8
MOJI1
 62
   256
 10
-1270.025307523715
 20
-1307.554229997339
 30
0.0
 40
3.0
  1
（０．１２５ｋＨｚ間隔３０波中１波）
  0
TEXT
  5
52
  8
MOJI1
 62
   256
 10
-1270.025307523715
 20
-1312.554229997339
 30
0.0
 40
3.0
  1
単一指向性エレクトレットコンデンサー型
  0
TEXT
  5
53
  8
MOJI1
 62
   256
 10
-1270.025307523715
 20
-1302.554229997339
 30
0.0
 40
3.0
  1
８０６．１２５ＭＨｚ～８０９．７５０ＭＨｚ
  0
TEXT
  5
54
  8
MOJI1
 62
   256
 10
-1270.025307523715
 20
-1317.554229997339
 30
0.0
 40
3.0
  1
２００Ｈｚ～１０ｋＨｚ
 41
0.95
  0
TEXT
  5
55
  8
MOJI1
 62
   256
 10
-1270.025307523715
 20
-1292.554229997339
 30
0.0
 40
3.0
  1
Ｆ３Ｅ、Ｆ９Ｗ
  0
LINE
  5
56
  8
GAIKEI
 62
   256
 10
-1248.983231883881
 20
-1250.547808557122
 30
0.0
 11
-1248.983231883881
 21
-1268.705193579812
 31
0.0
  0
LINE
  5
57
  8
GAIKEI
 62
   256
 10
-1248.183231883882
 20
-1250.547808557122
 30
0.0
 11
-1248.183231883882
 21
-1268.705193579812
 31
0.0
  0
LINE
  5
58
  8
SUNPO
 62
   256
 10
-1237.902041673288
 20
-1279.926501068472
 30
0.0
 11
-1237.902041673288
 21
-1249.403292501581
 31
0.0
  0
LINE
  5
59
  8
SUNPO
 62
   256
 10
-1243.902041673288
 20
-1279.926501068472
 30
0.0
 11
-1235.902041673288
 21
-1279.926501068472
 31
0.0
  0
LINE
  5
5A
  8
GAIKEI
 62
   256
 10
-1248.883231883881
 20
-1276.076501068472
 30
0.0
 11
-1248.883231883881
 21
-1269.126501068472
 31
0.0
  0
LINE
  5
5B
  8
GAIKEI
 62
   256
 10
-1248.283231883881
 20
-1276.076501068472
 30
0.0
 11
-1248.283231883881
 21
-1269.126501068472
 31
0.0
  0
ARC
  5
5C
  8
GAIKEI
 62
   256
 10
-1253.832066804551
 20
-1238.178701271522
 30
0.0
 40
40.0
 50
270.6009536917007
 51
281.0560720500984
  0
LINE
  5
5D
  8
GAIKEI
 62
   256
 10
-1257.994820743491
 20
-1279.926501068472
 30
0.0
 11
-1249.784290896311
 21
-1279.926501068472
 31
0.0
  0
ARC
  5
5E
  8
GAIKEI
 62
   256
 10
-1253.583231883881
 20
-1234.726501068472
 30
0.0
 40
45.0
 50
270.0
 51
279.9281827100014
  0
LINE
  5
5F
  8
GAIKEI
 62
   256
 10
-1251.041364804971
 20
-1278.087923917742
 30
0.0
 11
-1251.059405241771
 21
-1278.082489850312
 31
0.0
  0
LINE
  5
60
  8
GAIKEI
 62
   256
 10
-1251.027213519201
 20
-1278.105216170632
 30
0.0
 11
-1251.041364804971
 21
-1278.087923917742
 31
0.0
  0
LINE
  5
61
  8
GAIKEI
 62
   256
 10
-1251.020727025101
 20
-1278.129753026062
 30
0.0
 11
-1251.027213519201
 21
-1278.105216170632
 31
0.0
  0
LINE
  5
62
  8
GAIKEI
 62
   256
 10
-1258.132476127191
 20
-1278.226008611412
 30
0.0
 11
-1255.210820727101
 21
-1278.195363352692
 31
0.0
  0
ARC
  5
63
  8
GAIKEI
 62
   256
 10
-1258.131951398931
 20
-1278.276005857942
 30
0.0
 40
0.0499999999999977
 50
90.60137427090263
 51
177.0000264086021
  0
LINE
  5
64
  8
GAIKEI
 62
     1
 10
-1256.108231883881
 20
-1278.147475932472
 30
0.0
 11
-1256.145380067361
 21
-1278.140217110492
 31
0.0
  0
LINE
  5
65
  8
GAIKEI
 62
     1
 10
-1256.101917508421
 20
-1278.115259257672
 30
0.0
 11
-1256.162112452111
 21
-1278.107239895132
 31
0.0
  0
ARC
  5
66
  8
GAIKEI
 62
     1
 10
-1256.683231883882
 20
-1281.086501068472
 30
0.0
 40
3.000000000000001
 50
82.38592279759992
 51
106.5848457662006
  0
ARC
  5
67
  8
GAIKEI
 62
     1
 10
-1257.525264809611
 20
-1278.259226665092
 30
0.0
 40
0.0500000000000049
 50
106.584843565605
 51
127.7361788045953
  0
LINE
  5
68
  8
GAIKEI
 62
     1
 10
-1256.145380067361
 20
-1278.140217110492
 30
0.0
 11
-1256.211008666891
 21
-1278.127436680782
 31
0.0
  0
LINE
  5
69
  8
GAIKEI
 62
     1
 10
-1256.222839471591
 20
-1278.106577168571
 30
0.0
 11
-1256.283231883881
 21
-1278.113287319002
 31
0.0
  0
LINE
  5
6A
  8
GAIKEI
 62
     1
 10
-1256.162112452111
 20
-1278.107239895132
 30
0.0
 11
-1256.222839471591
 21
-1278.106577168571
 31
0.0
  0
LINE
  5
6B
  8
GAIKEI
 62
     1
 10
-1256.280484642591
 20
-1278.113966893302
 30
0.0
 11
-1256.285163979771
 21
-1278.113061871132
 31
0.0
  0
LINE
  5
6C
  8
GAIKEI
 62
     1
 10
-1256.211008666891
 20
-1278.127436680782
 30
0.0
 11
-1256.280484642591
 21
-1278.113966893302
 31
0.0
  0
LINE
  5
6D
  8
GAIKEI
 62
     1
 10
-1256.285163979771
 20
-1278.113061871132
 30
0.0
 11
-1256.285731883771
 21
-1278.112949179141
 31
0.0
  0
LINE
  5
6E
  8
GAIKEI
 62
     1
 10
-1256.043136495981
 20
-1278.130517691651
 30
0.0
 11
-1256.101917508421
 21
-1278.115259257672
 31
0.0
  0
LINE
  5
6F
  8
GAIKEI
 62
     1
 10
-1255.986634909891
 20
-1278.152791837642
 30
0.0
 11
-1256.043136495981
 21
-1278.130517691651
 31
0.0
  0
LINE
  5
70
  8
GAIKEI
 62
     1
 10
-1255.933231883882
 20
-1278.181763558812
 30
0.0
 11
-1255.986634909891
 21
-1278.152791837642
 31
0.0
  0
LINE
  5
71
  8
GAIKEI
 62
     1
 10
-1256.068919343701
 20
-1278.155177249992
 30
0.0
 11
-1256.108231883881
 21
-1278.147475932472
 31
0.0
  0
LINE
  5
72
  8
GAIKEI
 62
     1
 10
-1255.997331867451
 20
-1278.169253439092
 30
0.0
 11
-1256.068919343701
 21
-1278.155177249992
 31
0.0
  0
LINE
  5
73
  8
GAIKEI
 62
     1
 10
-1255.930731883881
 20
-1278.182410205892
 30
0.0
 11
-1255.997331867451
 21
-1278.169253439092
 31
0.0
  0
ARC
  5
74
  8
GAIKEI
 62
     1
 10
-1256.683231883881
 20
-1281.086501068472
 30
0.0
 40
3.000000000000004
 50
74.06588747780384
 51
75.4736740653039
  0
LINE
  5
75
  8
GAIKEI
 62
   256
 10
-1255.210746050441
 20
-1278.195362569412
 30
0.0
 11
-1253.412529674061
 21
-1278.176501068472
 31
0.0
  0
LINE
  5
76
  8
GAIKEI
 62
   256
 10
-1253.396462999451
 20
-1278.182551900742
 30
0.0
 11
-1253.379459409211
 21
-1278.176140521382
 31
0.0
  0
LINE
  5
77
  8
GAIKEI
 62
   256
 10
-1253.409096340401
 20
-1278.199804839702
 30
0.0
 11
-1253.396462999451
 21
-1278.182551900742
 31
0.0
  0
LINE
  5
78
  8
GAIKEI
 62
   256
 10
-1253.414216979391
 20
-1278.223607793812
 30
0.0
 11
-1253.409096340401
 21
-1278.199804839702
 31
0.0
  0
LINE
  5
79
  8
GAIKEI
 62
   256
 10
-1251.503123946061
 20
-1280.222232274062
 30
0.0
 11
-1251.478231883881
 21
-1280.006501068472
 31
0.0
  0
LINE
  5
7A
  8
GAIKEI
 62
   256
 10
-1250.882927051162
 20
-1279.976501068472
 30
0.0
 11
-1251.232927051161
 21
-1279.976501068472
 31
0.0
  0
LINE
  5
7B
  8
GAIKEI
 62
   256
 10
-1251.448231883881
 20
-1279.926501068472
 30
0.0
 11
-1251.448231883881
 21
-1280.006501068472
 31
0.0
  0
ARC
  5
7C
  8
GAIKEI
 62
   256
 10
-1251.232927051161
 20
-1279.876501068472
 30
0.0
 40
0.0999999999999965
 50
210.1339629466978
 51
270.0
  0
LINE
  5
7D
  8
GAIKEI
 62
   256
 10
-1251.103473481112
 20
-1279.919382023462
 30
0.0
 11
-1251.129042504391
 21
-1279.926501068472
 31
0.0
  0
LINE
  5
7E
  8
GAIKEI
 62
   256
 10
-1251.081544998631
 20
-1279.899038502482
 30
0.0
 11
-1251.103473481112
 21
-1279.919382023462
 31
0.0
  0
LINE
  5
7F
  8
GAIKEI
 62
   256
 10
-1251.066379254512
 20
-1279.868367034782
 30
0.0
 11
-1251.081544998631
 21
-1279.899038502482
 31
0.0
  0
LINE
  5
80
  8
GAIKEI
 62
   256
 10
-1251.060135561371
 20
-1279.831734652212
 30
0.0
 11
-1251.066379254512
 21
-1279.868367034782
 31
0.0
  0
LINE
  5
81
  8
GAIKEI
 62
   256
 10
-1251.060293446791
 20
-1279.655565649342
 30
0.0
 11
-1251.060135563391
 21
-1279.831734652061
 31
0.0
  0
ARC
  5
82
  8
GAIKEI
 62
   256
 10
-1250.882927051162
 20
-1279.876501068472
 30
0.0
 40
0.1
 50
270.0
 51
329.8660370532978
  0
LINE
  5
83
  8
GAIKEI
 62
   256
 10
-1258.258037615671
 20
-1279.726501068472
 30
0.0
 11
-1257.591975194921
 21
-1279.726501068472
 31
0.0
  0
ARC
  5
84
  8
GAIKEI
 62
   256
 10
-1257.994820877491
 20
-1279.826501068472
 30
0.0
 40
0.0999999999999937
 50
184.238772031399
 51
270.0
  0
LINE
  5
85
  8
GAIKEI
 62
   256
 10
-1258.102506739491
 20
-1279.726501068472
 30
0.0
 11
-1258.094546860601
 21
-1279.833898947552
 31
0.0
  0
ARC
  5
86
  8
GAIKEI
 62
   256
 10
-1252.613669374921
 20
-1280.216501068472
 30
0.0
 40
0.0499999999999931
 50
186.5819448843004
 51
270.0
  0
ARC
  5
87
  8
GAIKEI
 62
   256
 10
-1257.563416843231
 20
-1280.216501068472
 30
0.0
 40
0.0500000000000016
 50
186.5819448843004
 51
270.0
  0
ARC
  5
88
  8
GAIKEI
 62
   256
 10
-1256.502541861141
 20
-1280.216501068472
 30
0.0
 40
0.05
 50
270.0
 51
353.4180551156996
  0
LINE
  5
89
  8
GAIKEI
 62
   256
 10
-1251.552794392831
 20
-1280.266501068472
 30
0.0
 11
-1252.613669374921
 21
-1280.266501068472
 31
0.0
  0
LINE
  5
8A
  8
GAIKEI
 62
   256
 10
-1256.502541861141
 20
-1280.266501068472
 30
0.0
 11
-1257.563416843231
 21
-1280.266501068472
 31
0.0
  0
POINT
  5
8B
  8
GAIKEI
 62
   256
 10
-1257.458055299062
 20
-1280.266501068472
 30
0.0
  0
LINE
  5
8C
  8
GAIKEI
 62
   256
 10
-1252.663339821701
 20
-1280.222232274062
 30
0.0
 11
-1252.688231883881
 21
-1280.006501068472
 31
0.0
  0
LINE
  5
8D
  8
GAIKEI
 62
   256
 10
-1252.718231883881
 20
-1279.926501068472
 30
0.0
 11
-1252.718231883881
 21
-1280.006501068472
 31
0.0
  0
LINE
  5
8E
  8
GAIKEI
 62
   256
 10
-1256.115517231941
 20
-1279.976501068472
 30
0.0
 11
-1256.398230878521
 21
-1279.976501068472
 31
0.0
  0
LINE
  5
8F
  8
GAIKEI
 62
   256
 10
-1257.591593709321
 20
-1279.726501068472
 30
0.0
 11
-1253.583231883881
 21
-1279.726501068472
 31
0.0
  0
LINE
  5
90
  8
GAIKEI
 62
   256
 10
-1256.452871414371
 20
-1280.222232274062
 30
0.0
 11
-1256.427979352191
 21
-1280.006501068472
 31
0.0
  0
LINE
  5
91
  8
GAIKEI
 62
   256
 10
-1257.613087290001
 20
-1280.222232274062
 30
0.0
 11
-1257.637979352192
 21
-1280.006501068472
 31
0.0
  0
POINT
  5
92
  8
GAIKEI
 62
   256
 10
-1258.044820454642
 20
-1279.926501068472
 30
0.0
  0
LINE
  5
93
  8
GAIKEI
 62
   256
 10
-1256.397982261071
 20
-1280.006501068472
 30
0.0
 11
-1257.667976443301
 21
-1280.006501068472
 31
0.0
  0
LINE
  5
94
  8
GAIKEI
 62
   256
 10
-1257.667979352191
 20
-1279.926501068472
 30
0.0
 11
-1257.667979352191
 21
-1280.006501068472
 31
0.0
  0
LINE
  5
95
  8
GAIKEI
 62
   256
 10
-1256.397979352191
 20
-1279.926501068472
 30
0.0
 11
-1256.397979352191
 21
-1280.006501068472
 31
0.0
  0
ARC
  5
96
  8
GAIKEI
 62
   256
 10
-1256.115517231941
 20
-1279.876501068472
 30
0.0
 40
0.1
 50
270.0
 51
329.8660370532978
  0
LINE
  5
97
  8
GAIKEI
 62
   256
 10
-1253.531214954711
 20
-1279.919382023752
 30
0.0
 11
-1253.505012587021
 21
-1279.926501068472
 31
0.0
  0
LINE
  5
98
  8
GAIKEI
 62
   256
 10
-1253.553686605852
 20
-1279.899038505572
 30
0.0
 11
-1253.531214954711
 21
-1279.919382023752
 31
0.0
  0
LINE
  5
99
  8
GAIKEI
 62
   256
 10
-1253.569228006671
 20
-1279.868367042222
 30
0.0
 11
-1253.553686605852
 21
-1279.899038505572
 31
0.0
  0
LINE
  5
9A
  8
GAIKEI
 62
   256
 10
-1253.575626358611
 20
-1279.831734664092
 30
0.0
 11
-1253.569228006671
 21
-1279.868367042222
 31
0.0
  0
LINE
  5
9B
  8
GAIKEI
 62
   256
 10
-1253.073181377542
 20
-1279.976501068472
 30
0.0
 11
-1253.212826038481
 21
-1279.976501068472
 31
0.0
  0
LINE
  5
9C
  8
GAIKEI
 62
   256
 10
-1253.579531176401
 20
-1279.726363928032
 30
0.0
 11
-1253.575626358611
 21
-1279.831734664092
 31
0.0
  0
LINE
  5
9D
  8
GAIKEI
 62
   256
 10
-1253.073181377542
 20
-1280.096501068472
 30
0.0
 11
-1253.073181377542
 21
-1279.926501068472
 31
0.0
  0
LINE
  5
9E
  8
GAIKEI
 62
   256
 10
-1252.861049343181
 20
-1280.096501068472
 30
0.0
 11
-1252.861049343181
 21
-1279.926501068472
 31
0.0
  0
ARC
  5
9F
  8
GAIKEI
 62
   256
 10
-1253.212826038481
 20
-1279.876501068472
 30
0.0
 40
0.0999999999999965
 50
210.1339629466978
 51
270.0
  0
LINE
  5
A0
  8
GAIKEI
 62
   256
 10
-1253.073181377542
 20
-1280.096501068472
 30
0.0
 11
-1252.677847268491
 21
-1280.096501068472
 31
0.0
  0
ARC
  5
A1
  8
GAIKEI
 62
   256
 10
-1251.552794392831
 20
-1280.216501068472
 30
0.0
 40
0.05
 50
270.0
 51
353.4180551156996
  0
LINE
  5
A2
  8
GAIKEI
 62
   256
 10
-1251.448234792772
 20
-1280.006501068472
 30
0.0
 11
-1252.718228974991
 21
-1280.006501068472
 31
0.0
  0
LINE
  5
A3
  8
GAIKEI
 62
   256
 10
-1258.181883242541
 20
-1278.273389063972
 30
0.0
 11
-1258.258037615671
 21
-1279.726501068472
 31
0.0
  0
LINE
  5
A4
  8
GAIKEI
 62
   256
 10
-1253.414216979391
 20
-1278.223607793812
 30
0.0
 11
-1253.468043499142
 21
-1279.726353641962
 31
0.0
  0
LINE
  5
A5
  8
GAIKEI
 62
   256
 10
-1250.964379008631
 20
-1279.650232098041
 30
0.0
 11
-1251.020724770341
 21
-1278.129752858512
 31
0.0
  0
LINE
  5
A6
  8
GAIKEI
 62
   256
 10
-1246.102455318021
 20
-1277.476690049392
 30
0.0
 11
-1245.824579348771
 21
-1279.052602981892
 31
0.0
  0
LINE
  5
A7
  8
GAIKEI
 62
   256
 10
-1249.647503452661
 20
-1277.426501068472
 30
0.0
 11
-1247.983231883881
 21
-1277.426501068472
 31
0.0
  0
LINE
  5
A8
  8
GAIKEI
 62
   256
 10
-1249.796933861351
 20
-1277.563427703802
 30
0.0
 11
-1249.832931317451
 21
-1277.974880509122
 31
0.0
  0
ARC
  5
A9
  8
GAIKEI
 62
   256
 10
-1249.647504640921
 20
-1277.576501068472
 30
0.0
 40
0.15
 50
90.00000001959997
 51
174.9999994041028
  0
LINE
  5
AA
  8
GAIKEI
 62
   256
 10
-1247.983083168281
 20
-1277.426501068472
 30
0.0
 11
-1247.489906630731
 21
-1277.426501068472
 31
0.0
  0
ARC
  5
AB
  8
GAIKEI
 62
   256
 10
-1252.333231883881
 20
-1276.876110348052
 30
0.0
 40
4.3
 50
0.0
 51
10.15889723820073
  0
ARC
  5
AC
  8
GAIKEI
 62
   256
 10
-1244.833231883881
 20
-1276.876110348052
 30
0.0
 40
4.3
 50
169.8411027617993
 51
180.0
  0
LINE
  5
AD
  8
GAIKEI
 62
   256
 10
-1249.133231883881
 20
-1276.876110348052
 30
0.0
 11
-1249.133231883881
 21
-1277.426501068472
 31
0.0
  0
LINE
  5
AE
  8
GAIKEI
 62
   256
 10
-1248.033231883881
 20
-1276.876110348052
 30
0.0
 11
-1248.033231883881
 21
-1277.426501068472
 31
0.0
  0
LINE
  5
AF
  8
GAIKEI
 62
   256
 10
-1249.016602047751
 20
-1276.076501068472
 30
0.0
 11
-1248.149861720011
 21
-1276.076501068472
 31
0.0
  0
ARC
  5
B0
  8
GAIKEI
 62
   256
 10
-1249.016602047751
 20
-1276.126501068472
 30
0.0
 40
0.05
 50
90.0
 51
169.8411027617067
  0
ARC
  5
B1
  8
GAIKEI
 62
   256
 10
-1248.149861720011
 20
-1276.126501068472
 30
0.0
 40
0.0499999999999984
 50
10.15889723829337
 51
90.0
  0
LINE
  5
B2
  8
GAIKEI
 62
   256
 10
-1247.333105518321
 20
-1277.647207882002
 30
0.0
 11
-1247.340436377821
 21
-1277.563424280992
 31
0.0
  0
ARC
  5
B3
  8
GAIKEI
 62
   256
 10
-1247.489879175181
 20
-1277.576501068472
 30
0.0
 40
0.1500000000000034
 50
5.000837885198554
 51
89.99999991849964
  0
ARC
  5
B4
  8
GAIKEI
 62
   256
 10
-1246.151695862201
 20
-1277.485372497812
 30
0.0
 40
0.0500000000099964
 50
10.00001346299421
 51
101.0558873346075
  0
ARC
  5
B5
  8
GAIKEI
 62
   256
 10
-1246.532443651571
 20
-1279.966501068472
 30
0.0
 40
0.3
 50
180.0
 51
0.0
  0
LINE
  5
B6
  8
GAIKEI
 62
   256
 10
-1249.783088337842
 20
-1279.926501068472
 30
0.0
 11
-1246.299098413771
 21
-1279.926501068472
 31
0.0
  0
LINE
  5
B7
  8
GAIKEI
 62
   256
 10
-1246.297438994481
 20
-1279.926501068472
 30
0.0
 11
-1246.168714691361
 21
-1279.926501068472
 31
0.0
  0
LINE
  5
B8
  8
GAIKEI
 62
   256
 10
-1246.232443910921
 20
-1279.956501068472
 30
0.0
 11
-1246.832443392211
 21
-1279.956501068472
 31
0.0
  0
LINE
  5
B9
  8
GAIKEI
 62
   256
 10
-1246.232443651571
 20
-1279.966501068472
 30
0.0
 11
-1246.832443651571
 21
-1279.966501068472
 31
0.0
  0
LINE
  5
BA
  8
GAIKEI
 62
   256
 10
-1246.832443651571
 20
-1279.956501068472
 30
0.0
 11
-1246.832443651571
 21
-1279.966501068472
 31
0.0
  0
ARC
  5
BB
  8
GAIKEI
 62
   256
 10
-1246.862443651571
 20
-1279.956501068472
 30
0.0
 40
0.0299999999999955
 50
0.0
 51
89.99851591568402
  0
LINE
  5
BC
  8
GAIKEI
 62
   256
 10
-1246.232443651571
 20
-1279.956501068472
 30
0.0
 11
-1246.232443651571
 21
-1279.966501068472
 31
0.0
  0
ARC
  5
BD
  8
GAIKEI
 62
   256
 10
-1246.202443651571
 20
-1279.956501068472
 30
0.0
 40
0.029999999999998
 50
90.00148408429317
 51
180.0
  0
ARC
  5
BE
  8
GAIKEI
 62
   256
 10
-1246.168440664481
 20
-1279.826501068472
 30
0.0
 40
0.1
 50
270.0
 51
355.6739142538028
  0
LINE
  5
BF
  8
GAIKEI
 62
   256
 10
-1246.068722993001
 20
-1279.834044535761
 30
0.0
 11
-1246.012057926701
 21
-1279.084970709402
 31
0.0
  0
LINE
  5
C0
  8
GAIKEI
 62
   256
 10
-1248.233286090941
 20
-1269.126501068472
 30
0.0
 11
-1248.933177676821
 21
-1269.126501068472
 31
0.0
  0
ARC
  5
C1
  8
GAIKEI
 62
   256
 10
-1247.183231883882
 20
-1268.705193579812
 30
0.0
 40
1.8
 50
180.0
 51
193.5362027373998
  0
ARC
  5
C2
  8
GAIKEI
 62
   256
 10
-1249.983231883881
 20
-1268.705193579812
 30
0.0
 40
1.799999999999995
 50
346.4637972626002
 51
0.0
  0
INSERT
  5
C3
  8
SUNPO
 62
   256
  2
_OPEN30
 10
-1237.902041673288
 20
-1279.926501068472
 30
0.0
 41
-2.0
 42
2.0
 43
2.0
 50
90.0
  0
LINE
  5
C4
  8
GAIKEI
 62
   256
 10
-1250.274905771811
 20
-1244.618174956402
 30
0.0
 11
-1251.052723231122
 21
-1243.840357497092
 31
0.0
  0
ARC
  5
C5
  8
GAIKEI
 62
   256
 10
-1255.083231883881
 20
-1249.426501068472
 30
0.0
 40
6.2
 50
0.0
 51
45.0
  0
ARC
  5
C6
  8
GAIKEI
 62
   256
 10
-1250.992619154721
 20
-1243.709542742571
 30
0.0
 40
0.0500000000004747
 50
314.9999999994565
 51
44.9999999994588
  0
LINE
  5
C7
  8
GAIKEI
 62
   256
 10
-1250.699169840521
 20
-1245.042439025112
 30
0.0
 11
-1251.476987299831
 21
-1244.264621565802
 31
0.0
  0
LINE
  5
C8
  8
GAIKEI
 62
   256
 10
-1253.022015616721
 20
-1242.981222757952
 30
0.0
 11
-1251.643157393412
 21
-1244.360080981262
 31
0.0
  0
LINE
  5
C9
  8
GAIKEI
 62
     1
 10
-1252.512608681451
 20
-1242.330394466442
 30
0.0
 11
-1252.441898003331
 21
-1242.401105144562
 31
0.0
  0
LINE
  5
CA
  8
GAIKEI
 62
     1
 10
-1252.908095001321
 20
-1242.867302142552
 30
0.0
 11
-1253.022015616721
 21
-1242.981222757952
 31
0.0
  0
LINE
  5
CB
  8
GAIKEI
 62
     1
 10
-1252.948549030891
 20
-1242.483492103412
 30
0.0
 11
-1252.877838352771
 21
-1242.554202781522
 31
0.0
  0
LINE
  5
CC
  8
GAIKEI
 62
     1
 10
-1252.997752548542
 20
-1242.532695621062
 30
0.0
 11
-1252.927041870421
 21
-1242.603406299182
 31
0.0
  0
LINE
  5
CD
  8
GAIKEI
 62
     1
 10
-1252.978805679441
 20
-1242.796591464432
 30
0.0
 11
-1252.908095001321
 21
-1242.867302142552
 31
0.0
  0
LINE
  5
CE
  8
GAIKEI
 62
     1
 10
-1253.473780426271
 20
-1242.301616717602
 30
0.0
 11
-1253.587701041671
 21
-1242.415537333002
 31
0.0
  0
LINE
  5
CF
  8
GAIKEI
 62
     1
 10
-1253.403069748151
 20
-1242.372327395722
 30
0.0
 11
-1253.516990363552
 21
-1242.486248011122
 31
0.0
  0
LINE
  5
D0
  8
GAIKEI
 62
     1
 10
-1253.332359070041
 20
-1242.443038073842
 30
0.0
 11
-1253.446279685431
 21
-1242.556958689242
 31
0.0
  0
LINE
  5
D1
  8
GAIKEI
 62
     1
 10
-1253.261648391921
 20
-1242.513748751962
 30
0.0
 11
-1253.375569007311
 21
-1242.627669367362
 31
0.0
  0
LINE
  5
D2
  8
GAIKEI
 62
     1
 10
-1253.190937713801
 20
-1242.584459430082
 30
0.0
 11
-1253.304858329201
 21
-1242.698380045482
 31
0.0
  0
LINE
  5
D3
  8
GAIKEI
 62
     1
 10
-1253.120227035681
 20
-1242.655170108202
 30
0.0
 11
-1253.234147651082
 21
-1242.769090723592
 31
0.0
  0
LINE
  5
D4
  8
GAIKEI
 62
     1
 10
-1253.139173904781
 20
-1242.391274264822
 30
0.0
 11
-1253.068463226661
 21
-1242.461984942942
 31
0.0
  0
LINE
  5
D5
  8
GAIKEI
 62
     1
 10
-1253.403069748151
 20
-1242.372327395722
 30
0.0
 11
-1253.332359070041
 21
-1242.443038073842
 31
0.0
  0
LINE
  5
D6
  8
GAIKEI
 62
     1
 10
-1253.261648391921
 20
-1242.513748751962
 30
0.0
 11
-1253.190937713801
 21
-1242.584459430082
 31
0.0
  0
LINE
  5
D7
  8
GAIKEI
 62
     1
 10
-1253.587701041671
 20
-1242.415537333002
 30
0.0
 11
-1253.516990363552
 21
-1242.486248011122
 31
0.0
  0
LINE
  5
D8
  8
GAIKEI
 62
     1
 10
-1253.446279685431
 20
-1242.556958689242
 30
0.0
 11
-1253.375569007311
 21
-1242.627669367362
 31
0.0
  0
LINE
  5
D9
  8
GAIKEI
 62
     1
 10
-1253.304858329201
 20
-1242.698380045482
 30
0.0
 11
-1253.234147651082
 21
-1242.769090723592
 31
0.0
  0
LINE
  5
DA
  8
GAIKEI
 62
     1
 10
-1253.163436972961
 20
-1242.839801401712
 30
0.0
 11
-1253.092726294841
 21
-1242.910512079832
 31
0.0
  0
LINE
  5
DB
  8
GAIKEI
 62
     1
 10
-1253.049516357561
 20
-1242.725880786322
 30
0.0
 11
-1253.163436972961
 21
-1242.839801401712
 31
0.0
  0
LINE
  5
DC
  8
GAIKEI
 62
     1
 10
-1252.978805679441
 20
-1242.796591464432
 30
0.0
 11
-1253.092726294841
 21
-1242.910512079832
 31
0.0
  0
LINE
  5
DD
  8
GAIKEI
 62
     1
 10
-1253.089970387131
 20
-1242.342070747172
 30
0.0
 11
-1253.019259709011
 21
-1242.412781425292
 31
0.0
  0
LINE
  5
DE
  8
GAIKEI
 62
     1
 10
-1253.120227035681
 20
-1242.655170108202
 30
0.0
 11
-1253.049516357561
 21
-1242.725880786322
 31
0.0
  0
LINE
  5
DF
  8
GAIKEI
 62
     1
 10
-1252.856331192301
 20
-1242.674116977302
 30
0.0
 11
-1252.785620514181
 21
-1242.744827655412
 31
0.0
  0
LINE
  5
E0
  8
GAIKEI
 62
     1
 10
-1252.343490968031
 20
-1242.302698109262
 30
0.0
 11
-1252.785620514181
 21
-1242.744827655412
 31
0.0
  0
LINE
  5
E1
  8
GAIKEI
 62
     1
 10
-1252.807127674651
 20
-1242.624913459642
 30
0.0
 11
-1252.736416996531
 21
-1242.695624137762
 31
0.0
  0
ARC
  5
E2
  8
GAIKEI
 62
   256
 10
-1251.607802054352
 20
-1244.324725642202
 30
0.0
 40
0.0500000000004747
 50
225.0000000005435
 51
315.0000000005481
  0
LINE
  5
E3
  8
GAIKEI
 62
   256
 10
-1251.572443162161
 20
-1244.360077428132
 30
0.0
 11
-1250.957267368791
 21
-1243.744901634762
 31
0.0
  0
LINE
  5
E4
  8
GAIKEI
 62
   256
 10
-1248.283231883881
 20
-1250.126501068472
 30
0.0
 11
-1248.283231883881
 21
-1249.426501068472
 31
0.0
  0
LINE
  5
E5
  8
GAIKEI
 62
   256
 10
-1248.883231883881
 20
-1250.126501068472
 30
0.0
 11
-1248.883231883881
 21
-1249.426501068472
 31
0.0
  0
LINE
  5
E6
  8
GAIKEI
 62
   256
 10
-1248.233231883881
 20
-1250.126501068472
 30
0.0
 11
-1248.933231883882
 21
-1250.126501068472
 31
0.0
  0
ARC
  5
E7
  8
GAIKEI
 62
   256
 10
-1247.183231883882
 20
-1250.547808557122
 30
0.0
 40
1.799999999999998
 50
166.4637972626002
 51
180.0
  0
ARC
  5
E8
  8
GAIKEI
 62
   256
 10
-1249.983231883881
 20
-1250.547808557122
 30
0.0
 40
1.8
 50
0.0
 51
13.53620273739976
  0
ARC
  5
E9
  8
GAIKEI
 62
   256
 10
-1255.083231883881
 20
-1249.426501068472
 30
0.0
 40
6.800000000000001
 50
0.0
 51
45.0
  0
TEXT
  5
EA
  8
SUNPO
 62
   256
 10
-1238.402041673288
 20
-1258.706270415897
 30
0.0
 40
2.5
  1
420
 50
90.0
  7
EXPLODED0
  0
LINE
  5
EB
  8
SUNPO
 62
   256
 10
-1246.922607750409
 20
-1236.033484019543
 30
0.0
 11
-1240.977420470829
 21
-1241.978671299122
 31
0.0
  0
LINE
  5
EC
  8
SUNPO
 62
   256
 10
-1252.579461999901
 20
-1238.861911144289
 30
0.0
 11
-1246.922607750409
 21
-1233.205056894797
 31
0.0
  0
LINE
  5
ED
  8
GAIKEI
 62
     1
 10
-1253.192019105451
 20
-1241.454169971832
 30
0.0
 11
-1253.634148651611
 21
-1241.896299517992
 31
0.0
  0
LINE
  5
EE
  8
GAIKEI
 62
     1
 10
-1253.121308427331
 20
-1241.524880649952
 30
0.0
 11
-1253.563437973491
 21
-1241.967010196112
 31
0.0
  0
LINE
  5
EF
  8
GAIKEI
 62
     1
 10
-1253.262729783571
 20
-1241.383459293712
 30
0.0
 11
-1253.704859329731
 21
-1241.825588839872
 31
0.0
  0
LINE
  5
F0
  8
GAIKEI
 62
     1
 10
-1253.545572496041
 20
-1241.100616581242
 30
0.0
 11
-1253.987702042201
 21
-1241.542746127402
 31
0.0
  0
LINE
  5
F1
  8
GAIKEI
 62
     1
 10
-1253.474861817932
 20
-1241.171327259362
 30
0.0
 11
-1253.916991364081
 21
-1241.613456805522
 31
0.0
  0
LINE
  5
F2
  8
GAIKEI
 62
     1
 10
-1253.404151139811
 20
-1241.242037937482
 30
0.0
 11
-1253.846280685961
 21
-1241.684167483632
 31
0.0
  0
LINE
  5
F3
  8
GAIKEI
 62
     1
 10
-1253.333440461691
 20
-1241.312748615602
 30
0.0
 11
-1253.775570007852
 21
-1241.754878161752
 31
0.0
  0
LINE
  5
F4
  8
GAIKEI
 62
     1
 10
-1253.938498524551
 20
-1241.493542609742
 30
0.0
 11
-1253.867787846431
 21
-1241.564253287862
 31
0.0
  0
LINE
  5
F5
  8
GAIKEI
 62
     1
 10
-1254.251597885581
 20
-1241.523799258302
 30
0.0
 11
-1254.365518500981
 21
-1241.637719873702
 31
0.0
  0
LINE
  5
F6
  8
GAIKEI
 62
     1
 10
-1254.251597885581
 20
-1241.523799258302
 30
0.0
 11
-1254.180887207461
 21
-1241.594509936422
 31
0.0
  0
LINE
  5
F7
  8
GAIKEI
 62
     1
 10
-1253.361136818881
 20
-1241.481866329022
 30
0.0
 11
-1253.290426140761
 21
-1241.552577007142
 31
0.0
  0
LINE
  5
F8
  8
GAIKEI
 62
     1
 10
-1253.121308427331
 20
-1241.524880649952
 30
0.0
 11
-1253.050597749211
 21
-1241.595591328072
 31
0.0
  0
LINE
  5
F9
  8
GAIKEI
 62
   256
 10
-1254.754427230631
 20
-1241.248811144042
 30
0.0
 11
-1254.365518500981
 21
-1241.637719873702
 31
0.0
  0
LINE
  5
FA
  8
GAIKEI
 62
     1
 10
-1252.654030037691
 20
-1242.188973110212
 30
0.0
 11
-1252.583319359571
 21
-1242.259683788322
 31
0.0
  0
LINE
  5
FB
  8
GAIKEI
 62
     1
 10
-1252.697044358622
 20
-1241.949144718662
 30
0.0
 11
-1252.626333680501
 21
-1242.019855396782
 31
0.0
  0
LINE
  5
FC
  8
GAIKEI
 62
     1
 10
-1252.555623002381
 20
-1242.090566074902
 30
0.0
 11
-1252.484912324261
 21
-1242.161276753022
 31
0.0
  0
LINE
  5
FD
  8
GAIKEI
 62
     1
 10
-1252.838465714861
 20
-1241.807723362432
 30
0.0
 11
-1253.280595261021
 21
-1242.249852908582
 31
0.0
  0
LINE
  5
FE
  8
GAIKEI
 62
     1
 10
-1253.968755173101
 20
-1241.806641970772
 30
0.0
 11
-1254.082675788501
 21
-1241.920562586172
 31
0.0
  0
LINE
  5
FF
  8
GAIKEI
 62
     1
 10
-1253.898044494981
 20
-1241.877352648892
 30
0.0
 11
-1254.011965110381
 21
-1241.991273264292
 31
0.0
  0
LINE
  5
100
  8
GAIKEI
 62
     1
 10
-1253.704859329731
 20
-1241.825588839872
 30
0.0
 11
-1253.634148651611
 21
-1241.896299517992
 31
0.0
  0
LINE
  5
101
  8
GAIKEI
 62
     1
 10
-1254.153386466621
 20
-1241.849851908052
 30
0.0
 11
-1254.082675788501
 21
-1241.920562586172
 31
0.0
  0
LINE
  5
102
  8
GAIKEI
 62
     1
 10
-1253.050597749211
 20
-1241.595591328072
 30
0.0
 11
-1253.492727295371
 21
-1242.037720874232
 31
0.0
  0
LINE
  5
103
  8
GAIKEI
 62
     1
 10
-1252.979887071101
 20
-1241.666302006192
 30
0.0
 11
-1253.422016617251
 21
-1242.108431552352
 31
0.0
  0
LINE
  5
104
  8
GAIKEI
 62
     1
 10
-1252.909176392981
 20
-1241.737012684312
 30
0.0
 11
-1253.351305939131
 21
-1242.179142230462
 31
0.0
  0
LINE
  5
105
  8
GAIKEI
 62
     1
 10
-1253.685912460631
 20
-1242.089484683252
 30
0.0
 11
-1253.615201782511
 21
-1242.160195361372
 31
0.0
  0
LINE
  5
106
  8
GAIKEI
 62
     1
 10
-1253.615201782511
 20
-1242.160195361372
 30
0.0
 11
-1253.729122397911
 21
-1242.274115976762
 31
0.0
  0
LINE
  5
107
  8
GAIKEI
 62
     1
 10
-1253.827333816872
 20
-1241.948063327012
 30
0.0
 11
-1253.941254432261
 21
-1242.061983942412
 31
0.0
  0
LINE
  5
108
  8
GAIKEI
 62
     1
 10
-1253.756623138751
 20
-1242.018774005132
 30
0.0
 11
-1253.870543754141
 21
-1242.132694620532
 31
0.0
  0
LINE
  5
109
  8
GAIKEI
 62
     1
 10
-1253.827333816872
 20
-1241.948063327012
 30
0.0
 11
-1253.756623138751
 21
-1242.018774005132
 31
0.0
  0
LINE
  5
10A
  8
GAIKEI
 62
     1
 10
-1254.011965110381
 20
-1241.991273264292
 30
0.0
 11
-1253.941254432261
 21
-1242.061983942412
 31
0.0
  0
LINE
  5
10B
  8
GAIKEI
 62
     1
 10
-1253.685912460631
 20
-1242.089484683252
 30
0.0
 11
-1253.799833076031
 21
-1242.203405298642
 31
0.0
  0
LINE
  5
10C
  8
GAIKEI
 62
     1
 10
-1253.870543754141
 20
-1242.132694620532
 30
0.0
 11
-1253.799833076031
 21
-1242.203405298642
 31
0.0
  0
LINE
  5
10D
  8
GAIKEI
 62
     1
 10
-1253.231391743361
 20
-1242.200649390932
 30
0.0
 11
-1253.160681065241
 21
-1242.271360069052
 31
0.0
  0
LINE
  5
10E
  8
GAIKEI
 62
     1
 10
-1252.936872750162
 20
-1241.906130397732
 30
0.0
 11
-1252.866162072041
 21
-1241.976841075852
 31
0.0
  0
LINE
  5
10F
  8
GAIKEI
 62
     1
 10
-1253.514234455841
 20
-1241.917806678462
 30
0.0
 11
-1253.443523777721
 21
-1241.988517356572
 31
0.0
  0
LINE
  5
110
  8
GAIKEI
 62
     1
 10
-1253.372813099601
 20
-1242.059228034692
 30
0.0
 11
-1253.302102421481
 21
-1242.129938712812
 31
0.0
  0
LINE
  5
111
  8
GAIKEI
 62
     1
 10
-1253.563437973491
 20
-1241.967010196112
 30
0.0
 11
-1253.492727295371
 21
-1242.037720874232
 31
0.0
  0
LINE
  5
112
  8
GAIKEI
 62
     1
 10
-1253.422016617251
 20
-1242.108431552352
 30
0.0
 11
-1253.351305939131
 21
-1242.179142230462
 31
0.0
  0
LINE
  5
113
  8
GAIKEI
 62
     1
 10
-1254.039465851221
 20
-1241.735931292652
 30
0.0
 11
-1254.153386466621
 21
-1241.849851908052
 31
0.0
  0
LINE
  5
114
  8
GAIKEI
 62
     1
 10
-1253.797077168311
 20
-1241.634963965982
 30
0.0
 11
-1253.726366490191
 21
-1241.705674644102
 31
0.0
  0
LINE
  5
115
  8
GAIKEI
 62
     1
 10
-1253.987702042201
 20
-1241.542746127402
 30
0.0
 11
-1253.916991364081
 21
-1241.613456805522
 31
0.0
  0
LINE
  5
116
  8
GAIKEI
 62
     1
 10
-1253.846280685961
 20
-1241.684167483632
 30
0.0
 11
-1253.775570007852
 21
-1241.754878161752
 31
0.0
  0
LINE
  5
117
  8
GAIKEI
 62
     1
 10
-1254.110176529341
 20
-1241.665220614542
 30
0.0
 11
-1254.039465851221
 21
-1241.735931292652
 31
0.0
  0
LINE
  5
118
  8
GAIKEI
 62
     1
 10
-1253.968755173101
 20
-1241.806641970772
 30
0.0
 11
-1253.898044494981
 21
-1241.877352648892
 31
0.0
  0
LINE
  5
119
  8
GAIKEI
 62
     1
 10
-1254.294807822862
 20
-1241.708430551812
 30
0.0
 11
-1254.224097144741
 21
-1241.779141229932
 31
0.0
  0
LINE
  5
11A
  8
GAIKEI
 62
     1
 10
-1254.180887207461
 20
-1241.594509936422
 30
0.0
 11
-1254.294807822862
 21
-1241.708430551812
 31
0.0
  0
LINE
  5
11B
  8
GAIKEI
 62
     1
 10
-1254.110176529341
 20
-1241.665220614542
 30
0.0
 11
-1254.224097144741
 21
-1241.779141229932
 31
0.0
  0
LINE
  5
11C
  8
GAIKEI
 62
     1
 10
-1252.979887071101
 20
-1241.666302006192
 30
0.0
 11
-1252.909176392981
 21
-1241.737012684312
 31
0.0
  0
LINE
  5
11D
  8
GAIKEI
 62
     1
 10
-1253.219715462642
 20
-1241.623287685262
 30
0.0
 11
-1253.149004784521
 21
-1241.693998363382
 31
0.0
  0
LINE
  5
11E
  8
GAIKEI
 62
     1
 10
-1253.655655812072
 20
-1241.776385322222
 30
0.0
 11
-1253.584945133961
 21
-1241.847096000342
 31
0.0
  0
LINE
  5
11F
  8
GAIKEI
 62
     1
 10
-1253.078294106401
 20
-1241.764709041492
 30
0.0
 11
-1253.007583428281
 21
-1241.835419719612
 31
0.0
  0
LINE
  5
120
  8
GAIKEI
 62
     1
 10
-1252.838465714861
 20
-1241.807723362432
 30
0.0
 11
-1252.767755036741
 21
-1241.878434040542
 31
0.0
  0
LINE
  5
121
  8
GAIKEI
 62
     1
 10
-1252.795451393931
 20
-1242.047551753972
 30
0.0
 11
-1252.724740715811
 21
-1242.118262432092
 31
0.0
  0
LINE
  5
122
  8
GAIKEI
 62
     1
 10
-1253.686993852281
 20
-1240.959195225002
 30
0.0
 11
-1253.616283174161
 21
-1241.029905903122
 31
0.0
  0
LINE
  5
123
  8
GAIKEI
 62
     1
 10
-1253.616283174161
 20
-1241.029905903122
 30
0.0
 11
-1254.058412720322
 21
-1241.472035449282
 31
0.0
  0
LINE
  5
124
  8
GAIKEI
 62
     1
 10
-1254.129123398441
 20
-1241.401324771162
 30
0.0
 11
-1254.058412720322
 21
-1241.472035449282
 31
0.0
  0
LINE
  5
125
  8
GAIKEI
 62
     1
 10
-1253.785400887591
 20
-1241.057602260312
 30
0.0
 11
-1253.714690209471
 21
-1241.128312938432
 31
0.0
  0
LINE
  5
126
  8
GAIKEI
 62
     1
 10
-1253.686993852281
 20
-1240.959195225002
 30
0.0
 11
-1254.129123398441
 21
-1241.401324771162
 31
0.0
  0
LINE
  5
127
  8
GAIKEI
 62
     1
 10
-1254.079919880791
 20
-1241.352121253512
 30
0.0
 11
-1254.009209202671
 21
-1241.422831931632
 31
0.0
  0
LINE
  5
128
  8
GAIKEI
 62
     1
 10
-1253.262729783571
 20
-1241.383459293712
 30
0.0
 11
-1253.192019105451
 21
-1241.454169971832
 31
0.0
  0
LINE
  5
129
  8
GAIKEI
 62
     1
 10
-1253.545572496041
 20
-1241.100616581242
 30
0.0
 11
-1253.474861817932
 21
-1241.171327259362
 31
0.0
  0
LINE
  5
12A
  8
GAIKEI
 62
     1
 10
-1253.404151139811
 20
-1241.242037937482
 30
0.0
 11
-1253.333440461691
 21
-1241.312748615602
 31
0.0
  0
LINE
  5
12B
  8
GAIKEI
 62
     1
 10
-1253.643979531351
 20
-1241.199023616542
 30
0.0
 11
-1253.573268853231
 21
-1241.269734294662
 31
0.0
  0
LINE
  5
12C
  8
GAIKEI
 62
     1
 10
-1253.502558175111
 20
-1241.340444972782
 30
0.0
 11
-1253.431847496991
 21
-1241.411155650902
 31
0.0
  0
LINE
  5
12D
  8
GAIKEI
 62
   256
 10
-1254.754427230632
 20
-1241.178100465922
 30
0.0
 11
-1254.139244331002
 21
-1240.562917566292
 31
0.0
  0
ARC
  5
12E
  8
GAIKEI
 62
   256
 10
-1253.916505694921
 20
-1241.400839102002
 30
0.0
 40
0.8500000000005855
 50
109.0555202276787
 51
135.0
  0
ARC
  5
12F
  8
GAIKEI
 62
   256
 10
-1254.719071891571
 20
-1241.213455804982
 30
0.0
 40
0.0500000000014313
 50
135.0
 51
224.9999999994588
  0
ARC
  5
130
  8
GAIKEI
 62
   256
 10
-1253.916505694921
 20
-1241.400839102002
 30
0.0
 40
0.8499999999999587
 50
135.0
 51
160.9444797723183
  0
ARC
  5
131
  8
GAIKEI
 62
   256
 10
-1254.672667817069
 20
-1241.13965172668
 30
0.0
 40
0.0499999999999924
 50
160.9444797723842
 51
187.1828266672004
  0
ARC
  5
132
  8
GAIKEI
 62
   256
 10
-1254.177693070241
 20
-1240.644676979852
 30
0.0
 40
0.0500000000000035
 50
82.81717333279634
 51
109.0555202275993
  0
ARC
  5
133
  8
GAIKEI
 62
   256
 10
-1254.103888991941
 20
-1240.598272905352
 30
0.0
 40
0.050000000000951
 50
45.0000000000023
 51
135.0000000000023
  0
INSERT
  5
134
  8
SUNPO
 62
   256
  2
_OPEN30
 10
-1248.336821312782
 20
-1234.61927045717
 30
0.0
 41
2.0
 42
2.0
 43
2.0
 50
135.0
  0
ENDSEC
  0
EOF
